» » »

Steve Earle - Goodbye Tabs

Artists:  A B C D E F G H I J K L M N O P Q R S T U V W X Y Z # 

Goodbye Tabs

(ver. 1) Click to play this song!
Steve Earle
 Rating:
1.9/5 (30 votes)

 Goodbye lessons Tabs too difficult? Try these video lessons and learn fast
 
                INTRO:

  G                G                G                G
E|----------------|----------------|----------------|----------------|
B|-----------0----|-0h1-----0------|----------------|-0---------0----|
G|-------0--------|---------------0|-----------0----|-------0-------0|
D|-----0-------0--|-----0-------0--|-----0-------0--|-----0-------0--|
A|----------------|----------------|----------------|----------------|
E|-3-------3------|-3-------3------|-3-------3------|-3-------3------|
  

  D7/F#            D7/F#            D7/F#            D7/F#
E|----------------|----------------|----------------|----------------|
B|--h1-------(1)--|-(1)-------0----|-0h1-------1----|-0---------1----|
G|--h2--(2)------2|-------2--------|-------2--------|-------2--------|
D|-----0-------0--|-----0-------0--|-----0-------0--|-----0-------0--|
A|----------------|----------------|----------------|----------------|
E|-2-------2------|-2-------2------|-2-------2------|-2-------2------|
              

  C/G              C/G              D7/F#            D7/F#
E|----------------|----------------|----------------|----------------|
B|-0h1-------1----|-0---------0----|--h1------(1)---|---1---0--------|
G|-0-----0--------|-------0-------0|--h2---2-------2|-----------2---0|
D|--h2-2-------2--|-----2-------2--|-----0-------0--|-----0-------0--|
A|----------------|----------------|----------------|----------------|
E|-3-------3------|-3-------3------|-2-------2------|-2-------2------|
                                                  


  G                G                G                G
E|----------------|----------------|----------------|----------------|
B|----------------|---1---0--------|---------------1|---0-------0----|
G|-----------0---2|-----------2---0|-----------0----|-------2-------2|
D|-----0-------0--|-----0-------0--|-----0-------0--|-----0-------0--|
A|----------------|----------------|----------------|----------------|
E|-3-------3------|-3-------3------|-3-------3------|-3-------3------|




********************************************************************************************

( ) = faint or ghost notes
p   = pull-off
h   = hammer-on

********************************************************************************************



LYRICS & CHORDS:


Chords (relative to capo):

D7/G:  3X021X (which is really D7sus4/G but there isn't room the write that)
G:     320003 (often switching to 320013)
D7/F#: 20021X (often switching to 20020X)
Em:    022000
C/G:   33201X


"Same girl, different harmonica. Some girls are just better for songs than others."


VERSE:


D7/G  D7/G   G         G        D7/F#  D7/F#  D7/F#  D7/F#
  I remember   holding on to you

Em         Em       C/G       C/G           G                G   G   G
  All them long and,   lonely nights that I  put you through.

G           G         G       G                D7/F#  D7/F#  D7/F#  D7/F#
  Somewhere in there,  [I'm] sure I made you cry.

C/G            C/G     D7/F#     D7/F#     D7/G   D7/G   G   
[But] I can't remember     if we said goodbye.



CHORUS:

C/G             C/G   C/G   C/G         C/G                G   D7/G   G
[But] I recall              all of them nights down in Mexico

    G           D7/F#    D7/F#  D7/F#   D7/F#   D7/G   G   D7/F#  D7/F#
One place I may never go          in my life   again

      D7/G  D7/G    G      G          D7/F#   D7/F#   D7/F#   D7/F#
Was I       off somewhere, just too high?

       C/G       C/G     D7/F#    D7/F#     D7/G  D7/G   G    G 
Well I   can't remember    if we said goodbye.



I only miss you  ever' now and then.
It's like the soft breeze, blowing up from the Caribbean.
Most Novembers   I break down and cry.
Cos I can't remember if we said goodbye.


I recall all of them nights down in Mexico 
One place I may never go in my life again
Was I off somewhere, just too high?
Well I can't remember if we said goodbye.



C/G       C/G     D7/F#    D7/F#      Em  Em
  Can't remember     if we said   goodbye

    C/G   C/G
Goodbye

    G    G
Goodbye
            
Submit corrections


        Goodbye lessons Hard to play? Try these video lessons and learn fast Goodbye lessons
        
↑ Back to top | Tablatures and chords for acoustic guitar and electric guitar, ukulele, drums are parodies/interpretations of the original songs. You may use it for private study, scholarship, research or language learning purposes only