Home » S » Steve Earle »

Steve Earle - Gallway Girl Tabs

Artists:  A B C D E F G H I J K L M N O P Q R S T U V W X Y Z # 

Gallway Girl Tabs

(ver. 1) Click to play this song!
Steve Earle
                I think this 1 is more accurate :)
Any corrections and additions are welcome


e|----0-2-2-0------0-2-2-0---------7-7-7-7--9-10-9----7---5-5----------------|
B|--3---------3--3--------3--------------------------------------------------|
G|---------------------------------------------------------------------------|
D|---------------------------------------------------------------------------|
A|---------------------------------------------------------------------------|
E|---------------------------------------------------------------------------|
                                                                                  X2
e|-7--7-7----5-5-----3-2-0-2-----0-0-0-0-2-3-2--0----------------------------|     
B|-------------------------------------------------3-3-----------------------|
G|---------------------------------------------------------------------------|
D|---------------------------------------------------------------------------|
A|---------------------------------------------------------------------------|
E|---------------------------------------------------------------------------|

play it two times after every verse
            
Submit corrections

↑ Back to top | Tablatures and chords for acoustic guitar and electric guitar, ukulele, drums are parodies/interpretations of the original songs. You may use it for private study, scholarship, research or language learning purposes only