» » »

Steve Earle - Cckmp Tabs

Artists:  A B C D E F G H I J K L M N O P Q R S T U V W X Y Z # 

Cckmp Tabs

(ver. 1) Click to play this song!
Steve Earle
 Rating:
4/5 (4 votes)

 Cckmp lessons Tabs too difficult? Try these video lessons and learn fast
 
                CCKMP
Steve Earle


Strum 6 times, fading each strum.

E|-------0-------|
B|-------3-------|
G|-------2-------|
D|-------0-------|
A|-------0-------|
E|-------0-------| 


E|----------------------------------------------|
B|----------------------------------------3-----|
G|----------------------------------------------|
D|----0----------0--3b------0-------------------|
A|-------0--3b----------3b----------------------|
E|------------------------------------0---------|

                                                                    Dsus2
E|----------------------------------------------|
B|-------------------------------------0--0h1---|
G|----------------------------------2-----------|
D|-----------0--3b--0-----0---------------------|
A|-----0h3b------------3------------------------|
E|--0------------------------0------------------|

E|----------------------------------------------|
B|----------------------------------------------|
G|----------------------------------------------|
D|-----------0--3b--0-----0--3b-0-----0-3b-0----|
A|-----0-3b------------3-----------3------------|
E|----------------------------------------------|

E|------------------------------------------|
B|------------------------------------------|
G|------------------------------------------|
D|-----0------------------------------------|
A|--3---------------------------------------|
E|-------3b-3b--0---------------------------|
            
Submit corrections


        Cckmp lessons Hard to play? Try these video lessons and learn fast Cckmp lessons
        
↑ Back to top | Tablatures and chords for acoustic guitar and electric guitar, ukulele, drums are parodies/interpretations of the original songs. You may use it for private study, scholarship, research or language learning purposes only