Home » S » Stereolab »

Stereolab - Metronomic Underground Tabs

Artists:  A B C D E F G H I J K L M N O P Q R S T U V W X Y Z # 

Metronomic Underground Tabs

(ver. 1) Click to play this song!
Stereolab
 Rating:
4/5 (4 votes)
                
Sent:   Sunday, December 21, 1997 12:39 PM


Standard Tuning: E A D G B E.

(this is the bass part, but sounds fine on guitar)

E------------------------------------------------------|
B------------------------------------------------------|
G------------------------------------------------------|
D-----------7----7--------7---7-------7----------------|
A------------------------------------------------------|
E----5--5----------5--5---------5--5-------------------|

E------------------------------------------------------|
B------------------------------------------------------|
G------------------------------------------------------|
D-------7--5------------5--7---------------------------|
A-------------7---5--7---------------------------------|
E---5--------------------------------------------------|

(guitar riff)

A----------3---------5---------3----------------|
E---5-3-5-----5-3-5-----5-3-5------3-3--3--3-3--|


And that's it.  Add percussion, lots of Farfisa, and dual
French vocal parts.
            
Submit corrections

↑ Back to top | Tablatures and chords for acoustic guitar and electric guitar, ukulele, drums are parodies/interpretations of the original songs. You may use it for private study, scholarship, research or language learning purposes only