» » »

Status Quo - Running Out Of Time Tabs

Artists:  A B C D E F G H I J K L M N O P Q R S T U V W X Y Z # 

Running Out Of Time Tabs

(ver. 1) Click to play this song!
Status Quo
 Rating:
4.4/5 (7 votes)

 Running Out Of Time lessons Tabs too difficult? Try these video lessons and learn fast
 
                [Intro]

  PM------------------------------|
e|---------------------------------|
B|---------------------------------|
G|---------------------1---4-4-2-1-| x3
D|-0-0-4-0-7-7-5-4-2-2---2---------|
A|---------------------------------|
E|---------------------------------|

Lead
e|---------------------------------------------------------------------------|
B|---------------------------------------------------------------------------|
G|-9br-9-6-7---9b-9---9br-9-6-7---9b-9---9br-9-6-7---9b-9---9br-9-6-7---9b-9-|
D|---------------------------------------------------------------------------|
A|---------------------------------------------------------------------------|
E|---------------------------------------------------------------------------|

Rhythm
e|---------------------------------------------------------------------------|
B|---------------------------------------------------------------------------|
G|---------------------------------------------------------------------------|
D|--7--7--9---7---9---9--9--11---9---11---7--7--9---7---9---9--9--11---9---11|
A|--5--5--5---5---5---7--7--7----7---7----5--5--5---5---5---7--7--7----7---7-|
E|---------------------------------------------------------------------------|

e|---------------------------------------------------------------------------|
B|---------------------------------------------------------------------------|
G|---------------------------------------------------------------------------|
D|--7--7--9---7---9---9--9--11---9---11---7--7--9---7---9---9----------------|
A|--5--5--5---5---5---7--7--7----7---7----5--5--5---5---5---7----------------|
E|---------------------------------------------------------------------------|


[Verses]

e|-------------------------------------------------------------------------------|
B|-------------------------------------------------------------------------------|
G|-------------------------------------------------------------------------------|
D|--9--9--11---9---11---7--7--9---7---9---9--9--11---9---11---7--7--9---7---9----|
A|--7--7--7----7---7----5--5--5---5---5---7--7--7----7---7----5--5--5---5---5----|
E|-------------------------------------------------------------------------------|

e|-------------------------------------------------------------------------------|
B|-------------------------------------------------------------------------------|
G|-------------------------------------------------------------------------------|
D|--9--9--11---9---11---7--7--9---7---9---9--9--11---9---11---7--7--9---7---9----|
A|--7--7--7----7---7----5--5--5---5---5---7--7--7----7---7----5--5--5---5---5----|
E|-------------------------------------------------------------------------------|


[Chorus]

e|---------------------------------------------------|
B|---------------------------------------------------|
G|--5---4---2-----5---4---2-----5---4---2------------|
D|--5---5---2-----5---5---2-----5---5---2-------3----| x2
A|--3---2---0-----3---2---0-----3---2---0-------3----|
E|----------------------------------------------1----|

            
Submit corrections


        Running Out Of Time lessons Hard to play? Try these video lessons and learn fast Running Out Of Time lessons
        
↑ Back to top | Tablatures and chords for acoustic guitar and electric guitar, ukulele, drums are parodies/interpretations of the original songs. You may use it for private study, scholarship, research or language learning purposes only