» » »

Status Quo - Its Christmas Time Chords

Artists:  A B C D E F G H I J K L M N O P Q R S T U V W X Y Z # 

Its Christmas Time Chords

(ver. 1) Click to play this song!
Status Quo
 Rating:
4.4/5 (5 votes)

  Its Christmas Time lessons Tabs too difficult? Try these video lessons and learn fast
 
                [Intro]
x4
e|----2-|
B|----3-|
G|----2-|
D|-0----|
A|------|
E|------|

e|--7-10--------7-10---7-10-------7-10-8-7---------7-----------7-7----------------|
B|8-------8-7-8------8------8-7-8----------10-8-10-----8-10-12-----12-10-8---10---|
G|---------------------------------------------------9---------------------11---7-|
D|--------------------------------------------------------------------------------|
A|--------------------------------------------------------------------------------|
E|--------------------------------------------------------------------------------|


e|--7-10-------7-10---7-10-15-12-10-8------------10-|
B|8------8-7-8------8-----------------8-10-12-10----|
G|--------------------------------------------------|
D|--------------------------------------------------|
A|--------------------------------------------------|
E|--------------------------------------------------|

[Verse 1]
G                   B7               Am
Another year's gone rock and rollin' by
   C        D
Oh how time flies
G                 B7               Am
It's funny but it seems like yesterday
          D           C
I put the tinsel away

[Pre-Chorus]
                   B5               Am
It's a time we can all look forward to
                   B5                   C
I like to feel the festive spirit don't you
                                   D
When you switch on your lights and say

[Chorus]
     G                    G/F#
It's Christmas time, it's Christmas time
      Em                      Em/D
Stand up stand up and raise a glass of wine
        C                              D
And you let yourself go underneath the mistletoe
          G                    G/F#
Well it's Christmas time, it's Christmas time
     Em                      Em/D
Wake up wake up and find the snow outside
         C                               D                   G
And your presents will be underneath the Christmas tree with me

[Interlude]
e|--7-10--------7-10---7-10-------7-10-8-7---------7-----------8-8-7-------------|
B|8-------8-7-8------8------8-7-8----------10-8-10-----8-10-12-------10-8---10---|
G|---------------------------------------------------9--------------------11---7-|
D|-------------------------------------------------------------------------------|
A|-------------------------------------------------------------------------------|
E|-------------------------------------------------------------------------------|

[Verse 2]
G                     B7                  Am
Do you wanna hear the sleigh bells in the sun
     C        D
It's not much fun
G                        B7             Am
try and build yourself a snowman By the sea
        D           C
well it ain't gonna be

[Pre-Chorus]
                 B5               Am
I'll be roasting chestnuts by the fire
                  B5               C
Write a note with all my heart's desire
                               D
And let it burn all the way to Santa

[Chorus]
     G                    G/F#
It's Christmas time, it's Christmas time
      Em                      Em/D
Stand up stand up and raise a glass of wine
        C                              D
And you let yourself go underneath the mistletoe
          G                    G/F#
Well it's Christmas time, it's Christmas time
     Em                      Em/D
Wake up wake up and find the snow outside
         C                               D                   G
And your presents will be underneath the Christmas tree with me

[Interlude]
e|--7-10--------7-10---7-10-------7-10-8-7---------7-----------8-8-7--------------|
B|8-------8-7-8------8------8-7-8----------10-8-10-----8-10-12-------10-8---10----|
G|---------------------------------------------------9--------------------11---7--|
D|--------------------------------------------------------------------------------|
A|--------------------------------------------------------------------------------|
E|--------------------------------------------------------------------------------|

[Pre-Chorus]
                   B5               Am
It's a time we can all look forward to
                   B5                   C
I like to feel the festive spirit don't you
                                   D    E
When you switch on your lights and say, ooh

[Chorus]
     A                    A/G#
It's Christmas time, it's Christmas time
      F#m                     F#m/E
Stand up stand up and raise a glass of wine
        D                              E
And you let yourself go underneath the mistletoe
          A                    A/G#
Well it's Christmas time, it's Christmas time
     F#m                     F#m/E
Wake up wake up and find the snow outside
         D                               E                   A
And your presents will be underneath the Christmas tree with me
            
Submit corrections


         Its Christmas Time lessons Hard to play? Try these video lessons and learn fast  Its Christmas Time lessons
        
↑ Back to top | Tablatures and chords for acoustic guitar and electric guitar, ukulele, drums are parodies/interpretations of the original songs. You may use it for private study, scholarship, research or language learning purposes only