Home » S » Status Quo »

Status Quo - All Day And All Of The Night Tabs

Artists:  A B C D E F G H I J K L M N O P Q R S T U V W X Y Z # 

All Day And All Of The Night Tabs

(ver. 1) Click to play this song!
Status Quo
HI,I HAVENT WORKED OUT THE SOLO YET SORRY,IAM WORKING ON ITS GONNA BE BLOODY HARD I AM ONLY 13! THIS SONG[3 CHORDS MY ARSE!!]

INTRO AND VESRE
      F G     A#
     E----------------
     B----------------
     G----------------
     D----------------
     A-3-5-5-3-8-8-8-5
     E-1-3-3-1-6-6-6-3 X2

THEN DO THE INTRO FOR THE VERSE X 4

STRAIGHT AFTER THAT YOU PLAY;THIS IS THE BRIDGE!
      A#        F       A    G    C       A
     E-------------------------------------
     B-------------------------------------
     G-------------------------------------
     D-3-3-3-3---------------------5-5-5---
     A-1-1-1-1--3-3-3-3--7-7--5-5--3-3-3--7     
     E----------1-1-1-1--5-5--3-3---------5 X1

CHORUS
      A    C    HIGH F    A
     E---------------------
     B---------------------
     G---------------------
     D-7-7--5-5--10-10-10-7
     A-5-5--3-3--8--8--8--5
     E--------------------- X 4 

INTRO VERSE X 4 

BRIDGE 

CHORUS X 4 

SOLO ILL DO LATER .THE SECOND GUITAR PLAYS THE INTRO WHILE GUITAR 1 DOES THE SOLO!!

INTRO/VERSE X 5

BRIDGE

CHORUS X 4

THEN FINISH ON D C HIGH F D


ENJOY!!
            
Submit corrections

↑ Back to top | Tablatures and chords for acoustic guitar and electric guitar, ukulele, drums are parodies/interpretations of the original songs. You may use it for private study, scholarship, research or language learning purposes only