» » »

Static - X - Static-X - Push It Tabs

Artists:  A B C D E F G H I J K L M N O P Q R S T U V W X Y Z # 

Static-X - Push It Tabs

(ver. 1) Click to play this song!
Static - X
 Rating:
4/5 (4 votes)

 Static-X - Push It lessons Tabs too difficult? Try these video lessons and learn fast
 
                DROP D Tuning         b=bend   ~=hold note 
intro-
|----------------------------------------------|
|----------------------------------------------|
|---15--15---15--15---15--15---15--15----------|
|----------------------------------------------| x2   
|---13--13---13--13---13--13---13--13----------|
|-----0---0----0---0----0---0----0---0---------|

verses-
|---------------------------------------------------------------|
|---------------------------------------------------------------|
|---------------------------------------------------------------|
|--0-0-3-0-0-0-3--0-0-3-0-0-0-3--0-0-3-0-0-0-3--0-0-3-0-0-0-3~--|  x2
|--0-0-3-0-0-0-3--0-0-3-0-0-0-3--0-0-3-0-0-0-3--0-0-3-0-0-0-3~--|
|--0-0-3-0-0-0-3--0-0-3-0-0-0-3--0-0-3-0-0-0-3--0-0-3-0-0-0-3~--|

Chorus-
|---------------------------------------------------------------|
|---------------------------------------------------------------|
|---------------------------------------------------------------|
|--0-0-3-0-0-0-3--0-0-3-0-0-0-3--0-0-3-0-0-0-3--0-0-3-0-0-0-3~--|  
|--0-0-3-0-0-0-3--0-0-3-0-0-0-3--0-0-3-0-0-0-3--0-0-3-0-0-0-3~--|
|--0-0-3-0-0-0-3--0-0-3-0-0-0-3--0-0-3-0-0-0-3--0-0-3-0-0-0-3~--|

|---------------------------------------------------------------|
|---------------------------------------------------------------|
|---------------------------------------------------------------|
|--0-0-3-0-0-0-3--0-0-3-0-0-0-3--0-0-3-0-0-0-3--3-0-0-3-0-0-----|
|--0-0-3-0-0-0-3--0-0-3-0-0-0-3--0-0-3-0-0-0-3--3-0-0-3-0-0-----|
|--0-0-3-0-0-0-3--0-0-3-0-0-0-3--0-0-3-0-0-0-3--3-0-0-3-0-0-----|

verse x2

Intro x2

Interlude-
|----------------------------------------------------------------|
|------------5b-----------5b-----------5b------------------------|
|----------------------------------------------------------------|
|--0-0-3-0-0----0-0-3-0-0----0-0-3-0-0----0-0-3-0-0-3-0-0--------|
|--0-0-3-0-0----0-0-3-0-0----0-0-3-0-0----0-0-3-0-0-3-0-0--------|
|--0-0-3-0-0----0-0-3-0-0----0-0-3-0-0----0-0-3-0-0-3-0-0--------|
PM .........    .........    .........    ...............

Intro x2

Interlude 2
|------------------------|
|------------------------|
|------------------------|
|--3~---------1~---------|
|--3~---------1~---------|
|--3~---------1~---------|

Verse x2

And your done! enjoy, STATIC-X ROCKS!!!
            
Submit corrections


        Static-X - Push It lessons Hard to play? Try these video lessons and learn fast Static-X - Push It lessons
        
↑ Back to top | Tablatures and chords for acoustic guitar and electric guitar, ukulele, drums are parodies/interpretations of the original songs. You may use it for private study, scholarship, research or language learning purposes only