» » »

Static - X - Static Trance Tabs

Artists:  A B C D E F G H I J K L M N O P Q R S T U V W X Y Z # 

Static Trance Tabs

(ver. 1) Click to play this song!
Static - X
 Rating:
4/5 (4 votes)

 Static Trance lessons Tabs too difficult? Try these video lessons and learn fast
 
                Tune down the low E to a C. Best way to do that is to tune it down and make
   it the same pitch (Only lower of course) as the 3rd fret on the A string (C)


   Bass comes in like this with the programming behind it.

   e|-------------------------------------------------------------------------|
   B|-------------------------------------------------------------------------|
   G|-------------------------------------------------------------------------|
   D|-------------------------------------------------------------------------|
   A|-------------------------------------------------------------------------|
   C|0----0-0----0-0-------0-0-----0-----0-0----0-0-----0-0-------------------|





   Then the guitar part comes in. Simple, but when played loud and distorted it
   really rocks.

   e|----11--------11----------------------------11--------11-----------------|
   B|-------------------------------------------------------------------------|
   G|-------------------------------------------------------------------------|
   D|-------------------------------------------------------------------------|
   A|-------------------------------------------------------------------------|
   C|0--------0--0-------0--0---0-0-0---0-0----0-----0--0------0--0--0-0-00-0-|


   Then the sung part is really simple but it sounds cool when you sing it and 
   play it.

   e|---11--10---------5--6------------11--10---------5--6--------------------|
   B|-------------------------------------------------------------------------|
   G|-------------------------------------------------------------------------|
   D|-------------------------------------------------------------------------|
   A|-------------------------------------------------------------------------|
   C|-------------------------------------------------------------------------|


   Speed towards hell, shed no tears you dont know me take my life. Steal my
   tongue to defeat your taste, could never criticize. No better than me, 
   better than you its easier to lie. Cant you tell that you have become, 
   the waste that I despise.


   And then during the "This is the motion of the new revolution" it is this

   e|-------------------------------------------------------------------------|
   B|-------------------------------------------------------------------------|
   G|-------------------------------------------------------------------------|
   D|-------------------------------------------------------------------------|
   A|-------------------------------------------------------------------------|
   C|0--------1-----------0------------1--------0--------1--------0----------1|

   Waaaay easy :o) 

   Ben WInterman
            
Submit corrections


        Static Trance lessons Hard to play? Try these video lessons and learn fast Static Trance lessons
        
↑ Back to top | Tablatures and chords for acoustic guitar and electric guitar, ukulele, drums are parodies/interpretations of the original songs. You may use it for private study, scholarship, research or language learning purposes only