» » »

Static - X - Static Im With Stupd Tabs

Artists:  A B C D E F G H I J K L M N O P Q R S T U V W X Y Z # 

Static Im With Stupd Tabs

(ver. 1) Click to play this song!
Static - X
 Rating:
4/5 (4 votes)

 Static Im With Stupd lessons Tabs too difficult? Try these video lessons and learn fast
 
                TUNING: down one full step and drop d (C-D-C-F-A-D)

        () = palm mute


     RIFF 1:

    |------------------------------------------------11-|
    |-------------------------------------------------x-|
    |-------------------------------------------------8-|
    |---------------------------------------------------|
    |---------------------------------------------------|
    |-0--0-0-0-0--0-0--0-0-0-0--0-0--0-0-0-0--0-0-0-----|

     RIFF 2:

    |----------------------------------------------------|
    |----------------------------------------------------|
    |----------------------------------------------------|
    |-(0--0-0-0-0--0-0--0-0-0-0--0-0--0-0-0-0--0-0-0)--2-|
    |-(0--0-0-0-0--0-0--0-0-0-0--0-0--0-0-0-0--0-0-0)--2-|
    |-(0--0-0-0-0--0-0--0-0-0-0--0-0--0-0-0-0--0-0-0)--2-|

     RIFF 3:

    |-----------------------------|
    |-----------------------------|
    |-----------------------------|
    |-0-0--0--0-0--0--0-0--0--0-0-|
    |-0-0--0--0-0--0--0-0--0--0-0-|
    |-0-0--0--0-0--0--0-0--0--0-0-|

     RIFF 4:

    |-----------------------------------------|
    |-----------------------------------------|
    |-----------------------------------------|
    |-0-0--0--0-0--0--0-0--0--0-0-x-x-x-x-x-x-|
    |-0-0--0--0-0--0--0-0--0--0-0-x-x-x-x-x-x-|
    |-0-0--0--0-0--0--0-0--0--0-0-x-x-x-x-x-x-|
            
Submit corrections


        Static Im With Stupd lessons Hard to play? Try these video lessons and learn fast Static Im With Stupd lessons
        
↑ Back to top | Tablatures and chords for acoustic guitar and electric guitar, ukulele, drums are parodies/interpretations of the original songs. You may use it for private study, scholarship, research or language learning purposes only