» » »

Static - X - Shaunpalmers Tabs

Artists:  A B C D E F G H I J K L M N O P Q R S T U V W X Y Z # 

Shaunpalmers Tabs

(ver. 1) Click to play this song!
Static - X
 Rating:
4/5 (4 votes)

 Shaunpalmers lessons Tabs too difficult? Try these video lessons and learn fast
 
                This is the music at the intro video.
Note:  .=staccato
Tuning:  CGCFAD

C#5   C5      C#5 C5     D#5
D|--------------------------------------------------
A|--------------------------------------------------
F|--------------------------------------------------
C|--1p0--0-0-0--1p0--0-0-3--------------------------
G|--1p0--0-0-0--1p0--0-0-3--------------------------
C|--1p0--0-0-0--1p0--0-0-3--------------------------
         . . .       . . 

C#5   C5      C#5 C5     C#5                       
D|--------------------------------------------------
A|--------------------------------------------------
F|--------------------------------------------------
C|--1p0--0-0-0--1p0--0-0-1--------------------------
G|--1p0--0-0-0--1p0--0-0-1--------------------------
C|--1p0--0-0-0--1p0--0-0-1--------------------------
         . . .       . .
            
Submit corrections


        Shaunpalmers lessons Hard to play? Try these video lessons and learn fast Shaunpalmers lessons
        
↑ Back to top | Tablatures and chords for acoustic guitar and electric guitar, ukulele, drums are parodies/interpretations of the original songs. You may use it for private study, scholarship, research or language learning purposes only