» » »

Static - X - Push It Good Tab Tabs

Artists:  A B C D E F G H I J K L M N O P Q R S T U V W X Y Z # 

Push It Good Tab Tabs

(ver. 1) Click to play this song!
Static - X
 Rating:
4/5 (4 votes)

 Push It Good Tab lessons Tabs too difficult? Try these video lessons and learn fast
 
                Static-X
Push It

NOTATION.
b: bend
p: pull off
h: hammer


ACCORDAGE.
Ils sont accordés en standar mais deux tons en dessous C, F, A#, D#, G, C.


PLAN.
8x I
3x II
1x III
3x II
1x I
15x II
1x IV
15x II
1x IV
8x I
3x V
1x VI
8x I
1x VII
4x II
1x VII
15x II
1x IV


PARTIE I.
 C|---X------X------------------------------------------------------------------
 G|---18-----18-----------------------------------------------------------------
D#|---17-----17-----------------------------------------------------------------
A#|---15-----15-----------------------------------------------------------------
 F|---X------X------------------------------------------------------------------
 C|---16--0--16--0--------------------------------------------------------------

PARTIE II.
 C|-----------------------------------------------------------------------------
 G|-----------------------------------------------------------------------------
D#|-----------------------------------------------------------------------------
A#|----2--2--5--2--2--2--5------------------------------------------------------
 F|----2--2--5--2--2--2--5------------------------------------------------------
 C|----0--0--3--0--0--0--3------------------------------------------------------

PARTIE III.
 C|-----------------------------------------------------------------------------
 G|-----------------------------------------------------------------------------
D#|-----------------------------------------------------------------------------
A#|----2--2--5--2--2--2--5~-----------------------------------------------------
 F|----2--2--5--2--2--2--5~-----------------------------------------------------
 C|----0--0--3--0--0--0--3~-----------------------------------------------------

PARTIE IV.
 C|-----------------------------------------------------------------------------
 G|-----------------------------------------------------------------------------
D#|-----------------------------------------------------------------------------
A#|----5--2--2--5--2--2--5------------------------------------------------------
 F|----5--2--2--5--2--2--5------------------------------------------------------
 C|----3--0--0--3--0--0--3------------------------------------------------------

PARTIE V.
 C|-----------------------------------------------------------------------------
 G|-------------------------18b20-----------------------------------------------
D#|-----------------------------------------------------------------------------
A#|-----------------------------------------------------------------------------
 F|-----------------------------------------------------------------------------
 C|----0--0--3p0--0--0----------------------------------------------------------

PARTIE VI.
 C|-----------------------------------------------------------------------------
 G|-----------------------------------------------------------------------------
D#|-----------------------------------------------------------------------------
A#|-----------------------------------------------------------------------------
 F|-----------------------------------------------------------------------------
 C|----0--0--3p0--0--0--3-------------------------------------------------------

PARTIE VII.
 C|-----------------------------------------------------------------------------
 G|-----------------------------------------------------------------------------
D#|-----------------------------------------------------------------------------
A#|----5-----3-----2------------------------------------------------------------
 F|----5-----3-----2------------------------------------------------------------
 C|----3-----1-----0------------------------------------------------------------
            
Submit corrections


        Push It Good Tab lessons Hard to play? Try these video lessons and learn fast Push It Good Tab lessons
        
↑ Back to top | Tablatures and chords for acoustic guitar and electric guitar, ukulele, drums are parodies/interpretations of the original songs. You may use it for private study, scholarship, research or language learning purposes only