» » »

Static - X - Ostegolectric Bass

Artists:  A B C D E F G H I J K L M N O P Q R S T U V W X Y Z # 

Ostegolectric Bass

(ver. 1) Click to play this song!
Static - X
 Rating:
4/5 (4 votes)

 Ostegolectric lessons Tabs too difficult? Try these video lessons and learn fast
 
                
Artist = Static-x
Song name = Otsegolectric
Album = Shadow Zone

Intro               X2
G----------------------------------------------1------------
D----------4------1------3--------------4-------------3-----
A--1--1111---1111---1111---1111--1-1111---1111---1111---1111
E-----------------------------------------------------------

Verse 1    X4
G-------------
D-------------
A--3-3-4-3----
E-------------

Chorus              X1
G----------------------------------------------1------------
D----------4------1------3--------------4-------------3-----
A--1--1111---1111---1111---1111--1-1111---1111---1111---1111
E-----------------------------------------------------------

Verse 2     X8
G-------------
D-------------
A--3-3-4-3----
E-------------

Chorus              X1
G----------------------------------------------1------------
D----------4------1------3--------------4-------------3-----
A--1--1111---1111---1111---1111--1-1111---1111---1111---1111
E-----------------------------------------------------------

Verse 3 (The wierd bit) X3
G-------------------------
D-1~~~~4-------------------
A------1-1-2-1--1-1-1-1-2-1
E--------------------------

Last bit of last bit

G---------------------------------------------------
D-1~~~~4--------------------------------------------
A------1-1-2-1--1-1-1-1-2-1-1-1-1-1-2-1-1-1-1-1-2-1-
E---------------------------------------------------

Pause
 
Verse 4   X16(theres a high note every now and then in this verse the notes A-6-- I just forgot to tab it)
G-------------
D-------------
A--3-3-4-3----
E-------------

Chorus                       X2
G----------------------------------------------1------------
D----------4------1------3--------------4-------------3-----
A--1--1111---1111---1111---1111--1-1111---1111---1111---1111
E-----------------------------------------------------------

Bridge
G-------------------------
D-1~~~~4-------------------
A------1-1-2-1--1-1-1-1-2-1
E--------------------------

Last bit
G--------------------------------------------------
D-1~~~~4--------------------------------------------
A------1-1-2-1--1-1-1-1-2-1-1-1-1-1-2-1-1-1-1-1-2-1-
E---------------------------------------------------
            
Submit corrections


        Ostegolectric lessons Hard to play? Try these video lessons and learn fast Ostegolectric lessons
        
↑ Back to top | Tablatures and chords for acoustic guitar and electric guitar, ukulele, drums are parodies/interpretations of the original songs. You may use it for private study, scholarship, research or language learning purposes only