Home » S » Static - X »

Static - X - Monster Tabs

Artists:  A B C D E F G H I J K L M N O P Q R S T U V W X Y Z # 

Monster Tabs

(ver. 1) Click to play this song!
Static - X
 Rating:
4/5 (4 votes)
                .=pm

Intro/other parts
|---------------|
|---------------|
|---------------|
|---------------|
|---------------|
|0-0-0-1-0-0-0-6|

Verse
|-------------------------|
|-------------------------|
|-------------------------|
|-------------------------|
|00-00-00-00-00-00--------|
|00-00-00-00-00-00-0-6-0-6|
 .. .. .. .. .. ..
(you should use up and down strokes on the pming)
Pre-Chorus
|---------------|
|---------------|
|8-8-8-8-7-7-7-7|
|x-x-x-x-x-x-x-x|
|6-6-6-6-5-5-5-5|
|---------------|

Chorus
|---------------|
|---------------|
|---------------|
|0-0-0-1-0-0-0-6|
|0-0-0-1-0-0-0-6|
|0-0-0-1-0-0-0-6|

with that you should be able to figure the rest out yourself, on the verse there is a slight variation where they do the un-palm muted parts at different timings, you should be able to figure it out if you listen to the song.
            
Submit corrections

↑ Back to top | Tablatures and chords for acoustic guitar and electric guitar, ukulele, drums are parodies/interpretations of the original songs. You may use it for private study, scholarship, research or language learning purposes only