» » »

Static - X - Just In Case Tabs

Artists:  A B C D E F G H I J K L M N O P Q R S T U V W X Y Z # 

Just In Case Tabs

(ver. 1) Click to play this song!
Static - X
 Rating:
4/5 (4 votes)

 Just In Case  lessons Tabs too difficult? Try these video lessons and learn fast
 
                Rhythm Guitar
INTRO
   pm---------------------------------------------------------------
e|---------------------------------------------------------------------------|
B|---------------------------------------------------------------------------|
G|-------------------------play sequence 2x before lyrics start--------------|
D|---------------------------------------------------------------------------|
A|-0-0-0-0-0-0-0-0-0-0-0-0-0-0-0-0---3-3-3-3-3-3-3-3-3-3-3-3-3-3-3-3---------|
E|-0-0-0-0-0-0-0-0-0-0-0-0-0-0-0-0---3-3-3-3-3-3-3-3-3-3-3-3-3-3-3-3---------|

Lead Guitar
INTRO
Harmonic slide from 5th fret to 1st fret 
e|---------------------------------------------------------------------------|
B|---------------------------------------------------------------------------|
G|---------------------------------------------------------------------------|
D|---------------------------------------------------------------------------|
A|---------------------------------------------------------------------------|
E|-5*/--4*/--3*/--1*\--3*\--4*\--5*/--4*/--3*/--1*\--3*\--4*\--5*------------|


Rhythm 
Chorus 1 play sequence 2x
Chorus 2&3 play sequence 4x
e|---------------------------------------------------------------------------|
B|---------------------------------------------------------------------------|
G|---------------------------------------------------------------------------|
D|---------------------------------------------------------------------------|
A|-0-0-0-0-0-0-0-0-0-0-0-0-0-0-0-0---3-3-3-3-3-3-3-3-3-3-3-3-3-3-3-3---------|
E|-0-0-0-0-0-0-0-0-0-0-0-0-0-0-0-0---3-3-3-3-3-3-3-3-3-3-3-3-3-3-3-3---------|

Rhythm 
Chorus 1 play sequence 2x
Chorus 2&3 play sequence 4x
e|---------------------------------------------------------------------------|
B|---------------------------------------------------------------------------|
G|-----------------------------------5-5-5-5-5-5-5-5-5-5-5-5-5-5-5-5---------|
D|-7-7-7-7-7-7-7-7-7-7-7-7-7-7-7-7---3-3-3-3-3-3-3-3-3-3-3-3-3-3-3-3---------|
A|-5-5-5-5-5-5-5-5-5-5-5-5-5-5-5-5-------------------------------------------|
E|---------------------------------------------------------------------------|




Bridge (10* is the artificial harmonic on the fret)
e|---------------------------------------------------------------------------|
B|---------------------------------------------------------------------------|
G|---------------------------------------------------------------------------|
D|---------------------------------------------------------------------------|
A|-000-00-------00000--000-00-------00000--0h3--000-00-------00000-----------|
E|-000-00--10*--00000--000-00--10*--00000--0h3--000-00--10*--00000-----------|

(bridge continued) (PALM MUTE ALL OPEN NOTES!!)
e|---------------------------------------------------------------------------|
B|---------------------------------------------------------------------------|
G|------------ Play this 3x and wait to finish second half after midi part --|
D|---------------------------------------------------------------------------|
A|-000-00-------00000--------------------------------------------------------|
E|-000-00--10*--00000----- start playing second half after high hat roll ----|

(Bridge after midi interlude)
e|---------------------------------------------------------------------------|
B|---------------------------------------------------------------------------|
G|---------------------------------------------------------------------------|
D|---------------------------------------------------------------------------|
A|-000-00-------00000--000-00------00000-------000-00-------00000------------|
E|-000-00--10*--00000--000-00--10*-00000-------000-00--10*--00000------------|
                 Drum hit .............xxxxxxxx
e|---------------------------------------------------------------------------|
B|---------------------------------------------------------------------------|
G|---------------------------------------------------------------------------|
D|---------------------------------------------------------------------------|
A|-000-00------00000---------------------------------------------------------|
E|-000-00--10*-00000---------------------------------------------------------|

Rhythm Outro play 4x

e|---------------------------------------------------------------------------|
B|---------------------------------------------------------------------------|
G|---------------------------------------------------------------------------|
D|---------------------------------------------------------------------------|
A|-0-0-0-0-0-0-0-0-0-0-0-0-0-0-0-0---3-3-3-3-3-3-3-3-3-3-3-3-3-3-3-3---------|
E|-0-0-0-0-0-0-0-0-0-0-0-0-0-0-0-0---3-3-3-3-3-3-3-3-3-3-3-3-3-3-3-3---------|

Lead Outro (LET RING WHILE PICKING!!)
e|---------------------------------------------------------------------------|
B|---------------------------------------------------------------------------|
G|---------------------------------------------------------------------------|
D|-0000000000000000000000000000000033333333333333333333333333333333----------|
A|---------------------------------------------------------------------------|
E|---------------------------------------------------------------------------|

Lead and Rhythm end riff
e|---------------------------------------------------------------------------|
B|---------------------------------------------------------------------------|
G|---------------------------------------------------------------------------|
D|---------------------------------------------------------------------------|
A|-000-00-0-00-000-0-000-0---------------------------------------------------|
E|-000-00-0-00-000-0-000-0---------------------------------------------------|
            
Submit corrections


        Just In Case  lessons Hard to play? Try these video lessons and learn fast Just In Case  lessons
        
↑ Back to top | Tablatures and chords for acoustic guitar and electric guitar, ukulele, drums are parodies/interpretations of the original songs. You may use it for private study, scholarship, research or language learning purposes only