Home » S » State Radio »

State Radio - Omar Bay Tabs

Artists:  A B C D E F G H I J K L M N O P Q R S T U V W X Y Z # 

Omar Bay Tabs

(ver. 1) Click to play this song!
State Radio
Tuning: Eb Ab Db Gb Bb Eb

 Em	G	A	C   B	Em	G	A	C   B
-7------3-------5-------8---7---7-------3-------5-------8---7--|
-8------3-------5-------8---7---8-------3-------5-------8---7--|
-9------4-------6-------9---8---9-------4-------6-------9---8--|	x1
-9------5-------7-------10--9---9-------5-------7-------10--9--|
-7------5-------7-------10--9---7-------5-------7-------10--9--|
--------3-------5-------8---7-----------3-------5-------8---7--|

 Em	G	A	C   B	Em  A   D9  B9	Em  B7
-7------3-------5-------8---7---7---5---5---2---0---2--|
-8------3-------5-------8---7---8---5---5---2---0---0--|
-9------4-------6-------9---8---9---6---5---2---0---2--|	x1
-9------5-------7-------10--9---9---7---4---1---2---1--|
-7------5-------7-------10--9---7---7---5---2---2---2--|
--------3-------5-------8---7-------5-----------0------|

 Em	G	A	C   B	Em	G	A	C   B
-7------3-------5-------8---7---7-------3-------5-------8---7--|
-8------3-------5-------8---7---8-------3-------5-------8---7--|
-9------4-------6-------9---8---9-------4-------6-------9---8--|	x1
-9------5-------7-------10--9---9-------5-------7-------10--9--|
-7------5-------7-------10--9---7-------5-------7-------10--9--|
--------3-------5-------8---7-----------3-------5-------8---7--|

 Em	G	A	C   B	Em  A   D9  B9	Em  B7
-7------3-------5-------8---7---7---5---5---2---0---2--|
-8------3-------5-------8---7---8---5---5---2---0---0--|
-9------4-------6-------9---8---9---6---5---2---0---2--|	x1
-9------5-------7-------10--9---9---7---4---1---2---1--|
-7------5-------7-------10--9---7---7---5---2---2---2--|
--------3-------5-------8---7-------5-----------0------|

 C	B7  Em  C   G   B7  B9  C9  B9  A   B9
-0------2---0---0---3---2---2--s3--s2---0---2--|
-1------0---0---1---3---0---2--s3--s2---2---2--|
-0------2---0---0---0---2---2--s3--s2---2---2--|	x2
-2------1---2---2---0---1---1--s2--s1---2---1--|
-3------2---2---3---2---2---2--s3--s2---0---2--|
------------0-------3--------------------------|

 Em	G	A	C   B	Em	G	A	C   B
-7------3-------5-------8---7---7-------3-------5-------8---7--|
-8------3-------5-------8---7---8-------3-------5-------8---7--|
-9------4-------6-------9---8---9-------4-------6-------9---8--|	x1
-9------5-------7-------10--9---9-------5-------7-------10--9--|
-7------5-------7-------10--9---7-------5-------7-------10--9--|
--------3-------5-------8---7-----------3-------5-------8---7--|

 Em	G	A	C   B	Em  A   D9  B9	Em  B7
-7------3-------5-------8---7---7---5---5---2---0---2--|
-8------3-------5-------8---7---8---5---5---2---0---0--|
-9------4-------6-------9---8---9---6---5---2---0---2--|	x1
-9------5-------7-------10--9---9---7---4---1---2---1--|
-7------5-------7-------10--9---7---7---5---2---2---2--|
--------3-------5-------8---7-------5-----------0------|

 C	B7  Em  C   G   B7  B9  C9  B9  A   B9
-0------2---0---0---3---2---2--s3--s2---0---2--|
-1------0---0---1---3---0---2--s3--s2---2---2--|
-0------2---0---0---0---2---2--s3--s2---2---2--|	x2
-2------1---2---2---0---1---1--s2--s1---2---1--|
-3------2---2---3---2---2---2--s3--s2---0---2--|
------------0-------3--------------------------|

 Em	Em	Em 			       Em  Em7  Em	Em  A   D9  B9	Em  B7
-7------7-------7------------------------------7---10---7-------7---5---5---2---0---2--|
-8------8-------8------------------------------8---8----8-------8---5---5---2---0---0--|
-9------9-------9--7h9p7---7-------------------9---7----9-------9---6---5---2---0---2--|
-9------9-------9--------9---9-8-7s5-7s9-7s5---9---9----9-------9---7---4---1---2---1--|
-7------7-------7------------------------------7---7----7-------7---7---5---2---2---2--|
--------------------------------------------------------------------5-----------0------|


 C	B7  Em  C   G   B7  B9  C9  B9  A   B9
-0------2---0---0---3---2---2--s3--s2---0---2--|
-1------0---0---1---3---0---2--s3--s2---2---2--|
-0------2---0---0---0---2---2--s3--s2---2---2--|	x4
-2------1---2---2---0---1---1--s2--s1---2---1--|
-3------2---2---3---2---2---2--s3--s2---0---2--|
------------0-------3--------------------------|

 Em	Em7    		Em	Em	Em7	Em7	Em  A   D9  B9	Em
-7------10--10-7--10-7--7-------7-------10------10------7---5---5---2---0--|
-8------8---8--7--8--7--8-------8-------8-------8-------8---5---5---2---0--|
-9------7---7--7--7--7--9-------9-------7-------7-------9---6---5---2---0--|	x1
-9------9---9--7--9--7--9-------9-------9-------9-------9---7---4---1---2--|
-7------7---7--7--7--7--7-------7-------7-------7-------7---7---5---2---2--|
------------------------------------------------------------5--------------|
            
Submit corrections

↑ Back to top | Tablatures and chords for acoustic guitar and electric guitar, ukulele, drums are parodies/interpretations of the original songs. You may use it for private study, scholarship, research or language learning purposes only