» » »

State Champs - Our Time To Go Tabs

Artists:  A B C D E F G H I J K L M N O P Q R S T U V W X Y Z # 

Our Time To Go Tabs

(ver. 1) Click to play this song!
State Champs
 Rating:
4.3/5 (16 votes)

 Our Time To Go lessons Tabs too difficult? Try these video lessons and learn fast
 
                [Intro] Guitar 1:
D#|-------------0--|-------------0--|-----------------|-----------------|
A#|--------2/3-----|--------2/3-----|--------2-----0--|--------2-----0--|
F#|-----2----------|-----2----------|-----2-----2-----|-----2-----2-----|
C#|----------------|----------------|--0--------------|--0--------------|
G#|--0-------------|--0-------------|-----------------|-----------------|
C#|----------------|----------------|-----------------|-----------------|(x2)

[Verse] Guitar 1:
"Never Thought We'd End Up Here..."
D#|-------------0--|-------------0--|-----------------|-----------------|
A#|--------2/3-----|--------2/3-----|--------2-----0--|--------2-----0--|
F#|-----2----------|-----2----------|-----2-----2-----|-----2-----2-----|
C#|----------------|----------------|--0--------------|--0--------------|
G#|--0-------------|--0-------------|-----------------|-----------------|
C#|----------------|----------------|-----------------|-----------------|(x4)

[PreChorus] Guitar 1:
"Nothing Hurts More Than..."
D#|------------------|------------------|------------------|------------------|
A#|--5---5--5--5--5--|--5---5--5--5--5--|--5---5--5--5--5--|--5---5--5--5--5--|
F#|--x---x--x--x--x--|--x---x--x--x--x--|--4---4--4--4--4--|--4---4--4--4--4--|
C#|--4---4--4--4--4--|--4---4--4--4--4--|--2---2--2--2--2--|--2---2--2--2--2--|
G#|--4---4--4--4--4--|--4---4--4--4--4--|--2---2--2--2--2--|--2---2--2--2--2--|
C#|--4---4--4--4--4--|--4---4--4--4--4--|--2---2--2--2--2--|--2---2--2--2--2--|

D#|------------------|------------------|------------------|-----|
A#|--5---5--5--5--5--|--5---5--5--5--5--|--5---5--5--5--5--|--5--|
F#|--2---2--2--2--2--|--2---2--2--2--2--|--2---2--2--2--2--|--2--|
C#|--0---0--0--0--0--|--0---0--0--0--0--|--0---0--0--0--0--|--0--|
G#|--0---0--0--0--0--|--0---0--0--0--0--|--0---0--0--0--0--|--0--|
C#|--0---0--0--0--0--|--0---0--0--0--0--|--0---0--0--0--0--|--0--|

[Chorus] Guitar 1:
"Not A Second To Waste..."
D#|----------12--|--------------12------|--------------12------|--------------12------|
A#|------12------|------12----------12--|------12----------12--|------12----------12--|
F#|--14----------|--14------14----------|--13------13----------|--13------13----------|
C#|--------------|----------------------|----------------------|----------------------|
G#|--------------|----------------------|----------------------|----------------------|
C#|--------------|----------------------|----------------------|----------------------|

D#|--------0--|--------0--|-----0--|-----------|
A#|--0--------|-----------|--------|--0--------|
F#|-----6-----|-----6-----|--6-----|-----6-----|
C#|-----------|--4--------|--------|--------7--|
G#|-----------|-----------|--------|-----------|
C#|-----------|-----------|--------|-----------|

D#|--------------12------|--------------12------|--------------12------|--------------12------|
A#|------12----------12--|------12----------12--|------12----------12--|------12----------12--|
F#|--14------14----------|--14------14----------|--13------13----------|--13------13----------|
C#|----------------------|----------------------|----------------------|----------------------|
G#|----------------------|----------------------|----------------------|----------------------|
C#|----------------------|----------------------|----------------------|----------------------|

D#|--------0--|--------0--|-----0--|-----------|
A#|--0--------|-----------|--------|--0--------|
F#|-----6-----|-----6-----|--6-----|-----6-----|
C#|-----------|--4--------|--------|--------7--|
G#|-----------|-----------|--------|-----------|
C#|-----------|-----------|--------|-----------|

D#|--------------------------|--------------------------|--------------------------|-------------------------|
A#|--------------------------|--------------------------|--------------------------|-------------------------|
F#|--14--14--14--14--14--14--|--14--14--14--14--14--14--|--13--13--13--13--13--13--|-13--13--13--13--13--13--|
C#|---x---x---x---x---x---x--|---x---x---x---x---x---x--|---x---x---x---x---x---x--|--x---x---x---x---x---x--|
G#|--12--12--12--12--12--12--|--12--12--12--12--12--12--|--11--11--11--11--11--11--|-11--11--11--11--11--11--|
C#|--------------------------|--------------------------|--------------------------|-------------------------|

D#|--------------------|--------------------|--------------------------|------------|
A#|--------------------|--------------------|--------------------------|------------|
F#|--9--9--9--9--9--9--|--11-11-11-11-11-11-|--14--14--14--14--14--14--|--14--9--11-|
C#|--x--x--x--x--x--x--|--x--x--x--x--x--x--|---x---x---x---x---x---x--|---x--x--x--|
G#|--7--7--7--7--7--7--|--9--9--9--9--9--9--|--12--12--12--12--12--12--|--12--7--9--|
C#|--------------------|--------------------|--------------------------|------------|

D#|--------------12------|--------------12------|--------------12------|--------------12------|
A#|------12----------12--|------12----------12--|------12----------12--|------12----------12--|
F#|--14------14----------|--14------14----------|--13------13----------|--13------13----------|
C#|----------------------|----------------------|----------------------|----------------------|
G#|----------------------|----------------------|----------------------|----------------------|
C#|----------------------|----------------------|----------------------|----------------------|

D#|--------0--|--------0--|-----0--|-----------|
A#|--0--------|-----------|--------|--0--------|
F#|-----6-----|-----6-----|--6-----|-----6-----|
C#|-----------|--4--------|--------|--------7--|
G#|-----------|-----------|--------|-----------|
C#|-----------|-----------|--------|-----------|

[Chorus] Guitar 2:
"Not A Second To Waste..."
D#|------------------|------------------|------------------|------------------|
A#|------------------|------------------|------------------|------------------|
F#|--2---2--2--2--2--|--2---2--2--2--2--|------------------|------------------|
C#|--2---2--2--2--2--|--2---2--2--2--2--|--2---2--2--2--2--|--2---2--2--2--2--|
G#|--0---0--0--0--0--|--0---0--0--0--0--|--2---2--2--2--2--|--2---2--2--2--2--|
C#|------------------|------------------|--2---2--2--2--2--|--2---2--2--2--2--|

D#|------------------|------------------|------------------|------------------|
A#|------------------|------------------|------------------|------------------|
F#|------------------|------------------|------------------|------------------|
C#|--4---4--4--4--4--|--4---4--4--4--4--|--0---0--0--0--0--|--0---0--0--0--0--|
G#|--4---4--4--4--4--|--4---4--4--4--4--|--0---0--0--0--0--|--0---0--0--0--0--|
C#|--4---4--4--4--4--|--4---4--4--4--4--|--0---0--0--0--0--|--0---0--0--0--0--|

D#|------------------|------------------|------------------|------------------|
A#|------------------|------------------|------------------|------------------|
F#|--2---2--2--2--2--|--2---2--2--2--2--|------------------|------------------|
C#|--2---2--2--2--2--|--2---2--2--2--2--|--2---2--2--2--2--|--2---2--2--2--2--|
G#|--0---0--0--0--0--|--0---0--0--0--0--|--2---2--2--2--2--|--2---2--2--2--2--|
C#|------------------|------------------|--2---2--2--2--2--|--2---2--2--2--2--|

D#|------------------|------------------|------------------|------------------|
A#|------------------|------------------|------------------|------------------|
F#|------------------|------------------|------------------|------------------|
C#|--4---4--4--4--4--|--4---4--4--4--4--|--0---0--0--0--0--|--0---0--0--0--0--|
G#|--4---4--4--4--4--|--4---4--4--4--4--|--0---0--0--0--0--|--0---0--0--0--0--|
C#|--4---4--4--4--4--|--4---4--4--4--4--|--0---0--0--0--0--|--0---0--0--0--0--|

D#|--------------|--------------|------------------|------------------|------------------|-----------|
A#|--------------|--------------|------------------|------------------|------------------|-----------|
F#|--2--2--2--2--|--------------|------------------|------------------|------------------|-----------|
C#|--2--2--2--2--|--2--2--2--2--|--0---0--0--0--0--|--0---0--0--0--0--|--0---0--0--0--0--|--0--2--4--|
G#|--0--0--0--0--|--2--2--2--2--|--0---0--0--0--0--|--0---0--0--0--0--|--0---0--0--0--0--|--0--2--4--|
C#|--------------|--2--2--2--2--|--0---0--0--0--0--|--0---0--0--0--0--|--0---0--0--0--0--|--0--2--4--|

D#|------------------|------------------|------------------|------------------|
A#|------------------|------------------|------------------|------------------|
F#|--2---2--2--2--2--|--2---2--2--2--2--|------------------|------------------|
C#|--2---2--2--2--2--|--2---2--2--2--2--|--2---2--2--2--2--|--2---2--2--2--2--|
G#|--0---0--0--0--0--|--0---0--0--0--0--|--2---2--2--2--2--|--2---2--2--2--2--|
C#|------------------|------------------|--2---2--2--2--2--|--2---2--2--2--2--|

D#|------------------|------------------|------------------|------------------|
A#|------------------|------------------|------------------|------------------|
F#|------------------|------------------|------------------|------------------|
C#|--4---4--4--4--4--|--4---4--4--4--4--|--0---0--0--0--0--|--0---0--0--0--0--|
G#|--4---4--4--4--4--|--4---4--4--4--4--|--0---0--0--0--0--|--0---0--0--0--0--|
C#|--4---4--4--4--4--|--4---4--4--4--4--|--0---0--0--0--0--|--0---0--0--0--0--|

[Verse] Guitar 1:
"When I've Got It Figured Out..."
D#|-------------0--|-------------0--|-----------------|-----------------|
A#|--------2/3-----|--------2/3-----|--------2-----0--|--------2-----0--|
F#|-----2----------|-----2----------|-----2-----2-----|-----2-----2-----|
C#|----------------|----------------|--0--------------|--0--------------|
G#|--0-------------|--0-------------|-----------------|-----------------|
C#|----------------|----------------|-----------------|-----------------|(x4)

[PreChorus] Guitar 1:
"Nothing Hurts More Than..."
D#|------------------|------------------|------------------|------------------|
A#|--5---5--5--5--5--|--5---5--5--5--5--|--5---5--5--5--5--|--5---5--5--5--5--|
F#|--x---x--x--x--x--|--x---x--x--x--x--|--4---4--4--4--4--|--4---4--4--4--4--|
C#|--4---4--4--4--4--|--4---4--4--4--4--|--2---2--2--2--2--|--2---2--2--2--2--|
G#|--4---4--4--4--4--|--4---4--4--4--4--|--2---2--2--2--2--|--2---2--2--2--2--|
C#|--4---4--4--4--4--|--4---4--4--4--4--|--2---2--2--2--2--|--2---2--2--2--2--|

D#|------------------|------------------|------------------|-----|
A#|--5---5--5--5--5--|--5---5--5--5--5--|--5---5--5--5--5--|--5--|
F#|--2---2--2--2--2--|--2---2--2--2--2--|--2---2--2--2--2--|--2--|
C#|--0---0--0--0--0--|--0---0--0--0--0--|--0---0--0--0--0--|--0--|
G#|--0---0--0--0--0--|--0---0--0--0--0--|--0---0--0--0--0--|--0--|
C#|--0---0--0--0--0--|--0---0--0--0--0--|--0---0--0--0--0--|--0--|

[Chorus] Guitar 1:
"Not A Second To Waste..."
D#|----------12--|--------------12------|--------------12------|--------------12------|
A#|------12------|------12----------12--|------12----------12--|------12----------12--|
F#|--14----------|--14------14----------|--13------13----------|--13------13----------|
C#|--------------|----------------------|----------------------|----------------------|
G#|--------------|----------------------|----------------------|----------------------|
C#|--------------|----------------------|----------------------|----------------------|

D#|--------0--|--------0--|-----0--|-----------|
A#|--0--------|-----------|--------|--0--------|
F#|-----6-----|-----6-----|--6-----|-----6-----|
C#|-----------|--4--------|--------|--------7--|
G#|-----------|-----------|--------|-----------|
C#|-----------|-----------|--------|-----------|

D#|--------------12------|--------------12------|--------------12------|--------------12------|
A#|------12----------12--|------12----------12--|------12----------12--|------12----------12--|
F#|--14------14----------|--14------14----------|--13------13----------|--13------13----------|
C#|----------------------|----------------------|----------------------|----------------------|
G#|----------------------|----------------------|----------------------|----------------------|
C#|----------------------|----------------------|----------------------|----------------------|

D#|--------0--|--------0--|-----0--|-----------|
A#|--0--------|-----------|--------|--0--------|
F#|-----6-----|-----6-----|--6-----|-----6-----|
C#|-----------|--4--------|--------|--------7--|
G#|-----------|-----------|--------|-----------|
C#|-----------|-----------|--------|-----------|

D#|--------------------------|--------------------------|--------------------------|-------------------------|
A#|--------------------------|--------------------------|--------------------------|-------------------------|
F#|--14--14--14--14--14--14--|--14--14--14--14--14--14--|--13--13--13--13--13--13--|-13--13--13--13--13--13--|
C#|---x---x---x---x---x---x--|---x---x---x---x---x---x--|---x---x---x---x---x---x--|--x---x---x---x---x---x--|
G#|--12--12--12--12--12--12--|--12--12--12--12--12--12--|--11--11--11--11--11--11--|-11--11--11--11--11--11--|
C#|--------------------------|--------------------------|--------------------------|-------------------------|

D#|--------------------|--------------------|--------------------------|------------|
A#|--------------------|--------------------|--------------------------|------------|
F#|--9--9--9--9--9--9--|--11-11-11-11-11-11-|--14--14--14--14--14--14--|--14--9--11-|
C#|--x--x--x--x--x--x--|--x--x--x--x--x--x--|---x---x---x---x---x---x--|---x--x--x--|
G#|--7--7--7--7--7--7--|--9--9--9--9--9--9--|--12--12--12--12--12--12--|--12--7--9--|
C#|--------------------|--------------------|--------------------------|------------|

D#|--------------12------|--------------12------|--------------12------|--------------12------|
A#|------12----------12--|------12----------12--|------12----------12--|------12----------12--|
F#|--14------14----------|--14------14----------|--13------13----------|--13------13----------|
C#|----------------------|----------------------|----------------------|----------------------|
G#|----------------------|----------------------|----------------------|----------------------|
C#|----------------------|----------------------|----------------------|----------------------|

D#|--------0--|--------0--|-----0--|-----------|
A#|--0--------|-----------|--------|--0--------|
F#|-----6-----|-----6-----|--6-----|-----6-----|
C#|-----------|--4--------|--------|--------7--|
G#|-----------|-----------|--------|-----------|
C#|-----------|-----------|--------|-----------|

[Bridge] Guitar 1:
D#|----------------------|-----0--------|----------------------|-----0--4--0-----|
A#|-------------0--2--0--|--------2-----|-------------0--2--0--|--------------0--|
F#|-------2--------------|-----------2--|-------2--------------|-----------------|
C#|--0h2-----2-----------|--0-----------|--0h2-----2-----------|--0--------------|
G#|----------------------|--------------|----------------------|-----------------|
C#|----------------------|--------------|----------------------|-----------------|(x3)

[Bridge] Guitar 2:
D#|-----------|
A#|-----------|
F#|-----------|
C#|--2--2--2--|
G#|--2--2--2--|
C#|--2--2--2--|

D#|-----------------|-----------|-----------------|-----------|
A#|-----------------|-----------|-----------------|-----------|
F#|-----------------|-----------|-----------------|-----------|
C#|--4--4--4--4--4--|--4--4--4--|--0--0--0--0--0--|--0--0--0--|
G#|--4--4--4--4--4--|--4--4--4--|--0--0--0--0--0--|--0--0--0--|
C#|--4--4--4--4--4--|--4--4--4--|--0--0--0--0--0--|--0--0--0--|

D#|-----------------|-----------|-----------------|-----------|
A#|-----------------|-----------|-----------------|-----------|
F#|-----------------|-----------|-----------------|-----------|
C#|--4--4--4--4--4--|--4--4--4--|--2--2--2--2--2--|--2--2--2--|
G#|--4--4--4--4--4--|--4--4--4--|--2--2--2--2--2--|--2--2--2--|
C#|--4--4--4--4--4--|--4--4--4--|--2--2--2--2--2--|--2--2--2--|

[Chorus] Guitar 1:
"Life Won't Wait..."
D#|--------------12------|--------------12------|--------------12------|--------------12------|
A#|------12----------12--|------12----------12--|------12----------12--|------12----------12--|
F#|--14------14----------|--14------14----------|--13------13----------|--13------13----------|
C#|----------------------|----------------------|----------------------|----------------------|
G#|----------------------|----------------------|----------------------|----------------------|
C#|----------------------|----------------------|----------------------|----------------------|

D#|--------0--|--------0--|-----0--|-----------|
A#|--0--------|-----------|--------|--0--------|
F#|-----6-----|-----6-----|--6-----|-----6-----|
C#|-----------|--4--------|--------|--------7--|
G#|-----------|-----------|--------|-----------|
C#|-----------|-----------|--------|-----------|

D#|--------------------------|-------------------------|--------------------------|-------------------------|
A#|--------------------------|-12--12--12--12--12--12--|--------------------------|-12--12--12--12--12--12--|
F#|--14--14--14--14--14--14--|--9---9---9---9---9---9--|--13--13--13--13--13--13--|--9---9---9---9---9---9--|
C#|---x---x---x---x---x---x--|-------------------------|---x---x---x---x---x---x--|-------------------------|
G#|--12--12--12--12--12--12--|-------------------------|--11--11--11--11--11--11--|-------------------------|
C#|--------------------------|-------------------------|--------------------------|-------------------------|

D#|--------------------|--------------------|--------------------------|------------|
A#|--------------------|--------------------|--------------------------|------------|
F#|--9--9--9--9--9--9--|--11-11-11-11-11-11-|--14--14--14--14--14--14--|--14--9--11-|
C#|--x--x--x--x--x--x--|--x--x--x--x--x--x--|---x---x---x---x---x---x--|---x--x--x--|
G#|--7--7--7--7--7--7--|--9--9--9--9--9--9--|--12--12--12--12--12--12--|--12--7--9--|
C#|--------------------|--------------------|--------------------------|------------|

D#|--------------12------|--------------12------|--------------12------|--------------12------|
A#|------12----------12--|------12----------12--|------12----------12--|------12----------12--|
F#|--14------14----------|--14------14----------|--13------13----------|--13------13----------|
C#|----------------------|----------------------|----------------------|----------------------|
G#|----------------------|----------------------|----------------------|----------------------|
C#|----------------------|----------------------|----------------------|----------------------|

D#|--------0--|--------0--|-----0--|-----------|
A#|--0--------|-----------|--------|--0--------|
F#|-----6-----|-----6-----|--6-----|-----6-----|
C#|-----------|--4--------|--------|--------7--|
G#|-----------|-----------|--------|-----------|
C#|-----------|-----------|--------|-----------|

[Chorus] Guitar 2:
"Not A Second To Waste..."
D#|--0---0--0--0--0--|--0---0--0--0--0--|--0---0--0--0--0--|--0---0--0--0--0--|
A#|--2---2--2--2--2--|--2---2--2--2--2--|--0---0--0--0--0--|--0---0--0--0--0--|
F#|--2---2--2--2--2--|--2---2--2--2--2--|--1---1--1--1--1--|--1---1--1--1--1--|
C#|--2---2--2--2--2--|--2---2--2--2--2--|--2---2--2--2--2--|--2---2--2--2--2--|(Clean)
G#|--0---0--0--0--0--|--0---0--0--0--0--|--2---2--2--2--2--|--2---2--2--2--2--|
C#|------------------|------------------|--2---2--2--2--2--|--2---2--2--2--2--|

D#|------------------|------------------|------------------|------------------|
A#|------------------|------------------|------------------|------------------|
F#|------------------|------------------|------------------|------------------|
C#|--4---4--4--4--4--|--4---4--4--4--4--|--0---0--0--0--0--|--0---0--0--0--0--|
G#|--4---4--4--4--4--|--4---4--4--4--4--|--0---0--0--0--0--|--0---0--0--0--0--|
C#|--4---4--4--4--4--|--4---4--4--4--4--|--0---0--0--0--0--|--0---0--0--0--0--|

D#|------------------|------------------|------------------|------------------|
A#|------------------|------------------|------------------|------------------|
F#|--2---2--2--2--2--|--2---2--2--2--2--|------------------|------------------|
C#|--2---2--2--2--2--|--2---2--2--2--2--|--2---2--2--2--2--|--2---2--2--2--2--|
G#|--0---0--0--0--0--|--0---0--0--0--0--|--2---2--2--2--2--|--2---2--2--2--2--|
C#|------------------|------------------|--2---2--2--2--2--|--2---2--2--2--2--|

D#|------------------|------------------|------------------|------------------|
A#|------------------|------------------|------------------|------------------|
F#|------------------|------------------|------------------|------------------|
C#|--4---4--4--4--4--|--4---4--4--4--4--|--0---0--0--0--0--|--0---0--0--0--0--|
G#|--4---4--4--4--4--|--4---4--4--4--4--|--0---0--0--0--0--|--0---0--0--0--0--|
C#|--4---4--4--4--4--|--4---4--4--4--4--|--0---0--0--0--0--|--0---0--0--0--0--|

D#|--------------|--------------|------------------|------------------|------------------|-----------|
A#|--------------|--------------|------------------|------------------|------------------|-----------|
F#|--2--2--2--2--|--------------|------------------|------------------|------------------|-----------|
C#|--2--2--2--2--|--2--2--2--2--|--0---0--0--0--0--|--0---0--0--0--0--|--0---0--0--0--0--|--0--2--4--|
G#|--0--0--0--0--|--2--2--2--2--|--0---0--0--0--0--|--0---0--0--0--0--|--0---0--0--0--0--|--0--2--4--|
C#|--------------|--2--2--2--2--|--0---0--0--0--0--|--0---0--0--0--0--|--0---0--0--0--0--|--0--2--4--|

D#|------------------|------------------|------------------|------------------|
A#|------------------|------------------|------------------|------------------|
F#|--2---2--2--2--2--|--2---2--2--2--2--|------------------|------------------|
C#|--2---2--2--2--2--|--2---2--2--2--2--|--2---2--2--2--2--|--2---2--2--2--2--|
G#|--0---0--0--0--0--|--0---0--0--0--0--|--2---2--2--2--2--|--2---2--2--2--2--|
C#|------------------|------------------|--2---2--2--2--2--|--2---2--2--2--2--|

D#|------------------|------------------|------------------|------------------|
A#|------------------|------------------|------------------|------------------|
F#|------------------|------------------|------------------|------------------|
C#|--4---4--4--4--4--|--4---4--4--4--4--|--0---0--0--0--0--|--0---0--0--0--0--|
G#|--4---4--4--4--4--|--4---4--4--4--4--|--0---0--0--0--0--|--0---0--0--0--0--|
C#|--4---4--4--4--4--|--4---4--4--4--4--|--0---0--0--0--0--|--0---0--0--0--0--|

[Outro] Guitar 1:
D#|----------------------|-----0--------|----------------------|-----0--4--0-----|
A#|-------------0--2--0--|--------2-----|-------------0--2--0--|--------------0--|
F#|-------2--------------|-----------2--|-------2--------------|-----------------|
C#|--0h2-----2-----------|--0-----------|--0h2-----2-----------|--0--------------|
G#|----------------------|--------------|----------------------|-----------------|
C#|----------------------|--------------|----------------------|-----------------|

D#|----------------------|-----0--------|----------------------|--------------|
A#|-------------0--2--0--|--------2-----|-------------0--2--0--|--13-13-13-13-|
F#|-------2--------------|-----------2--|-------2--------------|--x--x--x--x--|
C#|--0h2-----2-----------|--0-----------|--0h2-----2-----------|--11-11-11-11-|
G#|----------------------|--------------|----------------------|--------------|
C#|----------------------|--------------|----------------------|--------------|

D#|------------------|--------------|--------------|------------|
A#|------------------|--------------|--------------|------------|
F#|--14--14--14--14--|--14--14--14--|--11-11-11-11-|--11-11-11--|
C#|---x---x---x---x--|---x---x---x--|--x--x--x--x--|--x--x--x---|
G#|--12--12--12--12--|--12--12--12--|--9--9--9--9--|--9--9--9---|
C#|------------------|--------------|--------------|------------|

D#|------------------|--------------|-------------------|-------------------|
A#|------------------|--------------|-------------------|-------------------|
F#|--14--14--14--14--|--14--14--14--|-16-16-16-16-16-16-|-16-16-16-16-16-16-|
C#|---x---x---x---x--|---x---x---x--|--x--x--x--x--x--x-|--x--x--x--x--x--x-|
G#|--12--12--12--12--|--12--12--12--|-14-14-14-14-14-14-|-14-14-14-14-14-14-|
C#|------------------|--------------|-------------------|-------------------|

[Outro] Guitar 2:
D#|-----------|
A#|-----------|
F#|-----------|
C#|--2--2--2--|
G#|--2--2--2--|
C#|--2--2--2--|

D#|-----------------|-----------|-----------------|-----------|
A#|-----------------|-----------|-----------------|-----------|
F#|-----------------|-----------|-----------------|-----------|
C#|--4--4--4--4--4--|--4--4--4--|--0--0--0--0--0--|--0--0--0--|
G#|--4--4--4--4--4--|--4--4--4--|--0--0--0--0--0--|--0--0--0--|
C#|--4--4--4--4--4--|--4--4--4--|--0--0--0--0--0--|--0--0--0--|

D#|-----------------|-----------|-----------------|-----------|
A#|-----------------|-----------|-----------------|-----------|
F#|-----------------|-----------|-----------------|-----------|
C#|--4--4--4--4--4--|--4--4--4--|--2--2--2--2--2--|--2--2--2--|
G#|--4--4--4--4--4--|--4--4--4--|--2--2--2--2--2--|--2--2--2--|
C#|--4--4--4--4--4--|--4--4--4--|--2--2--2--2--2--|--2--2--2--|

*            
Submit corrections


        Our Time To Go lessons Hard to play? Try these video lessons and learn fast Our Time To Go lessons
        
↑ Back to top | Tablatures and chords for acoustic guitar and electric guitar, ukulele, drums are parodies/interpretations of the original songs. You may use it for private study, scholarship, research or language learning purposes only