Home » S » Starship »

Starship - We Built This City Chords

Artists:  A B C D E F G H I J K L M N O P Q R S T U V W X Y Z # 

We Built This City Chords

(ver. 1) Click to play this song!
Starship
 Rating:
4.3/5 (13 votes)
                [Intro] Clean
 
e|--1-------------13\-------0------------------------1----------------|
B|--3-------10-11-----------1------------------------3----------------|
G|--1-----------------------2-----------0--2---------1----------------|
D|--3-----------------------3--------3---------------3----------------|
A|--1-----------------------3------------------------1----------------|
E|--1------------------------------------------------1----------------|
 
e|---------13\------0----------1--------------------------------------|
B|---10-11----------1----------3--------------------------------------|
G|------------------2----------1--------------------------------------|
D|------------------3----------3--------------------------------------|
A|------------------3----------1--------------------------------------|
E|-----------------------------1--------------------------------------|
 
 
[Verse 1] Distortion on
 
e|----------------------------------------------12--13--------------------------|
B|----------------------------------------------13--13--------------------------|
G|-------3-------2----------------------3---------------------------------------|
D|--3----3-------2-----5-----------3----3---------------------------------------|X2
A|--3----1-------0-----5-----------3----1---------------------------------------|
E|--1------------------3-----------1--------------------------------------------| 
 
 
 
[Verse 2] Clean
 
e|--0-----------1------------------------------------------[distortion on]------|
B|--1-----------3---------------------------------------------------------------|
G|--2-----------1---------------8-------9-------10--------10--10-10-10--10------|
D|--3-----------3---------------8-------9-------10--------10--10-10-10--10------|
A|--3-----------1---------------6-------7-------8---------8---8--8--8---8-------|
E|--------------1---------------------------------------------------------------|
 
[Back To Clean]
e|--0-----------1-----1-------------------------------------------------------|
B|--1-----------3-------------------------------------------------------------|
G|--2-----------1---------------8-------9-------10----------------------------|
D|--3-----------3---------------8-------9-------10--------3--2--0------------|
A|--3-----------1---1-----------6-------7-------8-----------------------------|
E|--------------1-------------------------------------------------------------|
 
 
[Chorus] distortion on
 
e|----------------------------------------------------------------------------|
B|----------------------------------------------------------------------------|
G|--7-7---7-7-7-----------------------10-10---10-10-10-----5-5---5-5-5--------|
D|--7-7---7-7-7------8-8---8-8-8------10-10---10-10-10-----5-5---5-5-5--------|
A|--5-5---5-5-5------8-8---8-8-8------8--8----8--8--8------3-3---3-3-3--------|
E|-------------------6-6---6-6-6----------------------------------------------|
 
  [PM]        [PM]          [PM-------------------------------------------------]
e|----------------------------------------------------------------------------------------|
B|-------------------------------------------------------------------------------------3--|
G|-------------------3-------1-1-----3-3-3-3-3-3---2-2--0-0-0-0-----1-1-----3-3-2------2--|
D|---------3---------3-----------3-3------------------------------------3-3--------3-2-0--|
A|---------3---1-1---1--------------------------------------------------------------------|
E|-1-1-----1------------------------------------------------------------------------------|
 
                     [PM-]    [PM]     [PM--]     [PM]   [PM-]
e|----------------------------------------------------------------------------|
B|----------------------------------------------------------------------------|
G|------3-----3-3-3---------3-------3------------------3-------3--------------|
D|------3-----3-3-3---------3-------3------------------3-------3--------------|
A|------1-----1-1-1--1-1-1--1--1-1--1--1-1-1-1-----0-0-0-0-0-0 0-0-----0------|
E|------------------------------------------------------------------1-3-------|
                     [PM-]    [PM]    [PM---]     [PM]   [PM-]
e|-----------------------------------------------------------------------------|
B|-----------------------------------------------------------------------------|
G|------3-----3-3-3---------3-------3------------------3-------3-------------3-|
D|------3-----3-3-3---------3-------3------------------3-------3-----10--7---3-|
A|------1-----1-1-1--1-1-1--1--1-1--1--1-1-1-1-----0-0-0-0-0-0 0-0---10--7---1-|
E|-------------------------------------------------------------------8---5-----|
 
[Verse 1]
 
e|----------------------------------------------12--13--------------------------|
B|----------------------------------------------13--13--------------------------|
G|-------3-------2----------------------3---------------------------------------|
D|--3----3-------2-----5-----------3----3---------------------------------------|
A|--3----1-------0-----5-----------3----1---------------------------------------|
E|--1------------------3-----------1--------------------------------------------| 
 
 [Verse 2] Clean
                                                           [Distortion on]
e|--0-----------1---------------------------------------------------------------|
B|--1-----------3---------------------------------------------------------------|
G|--2-----------1---------------8-------9-------10--------10--10-10-10--10------|
D|--3-----------3---------------8-------9-------10--------10--10-10-10--10------|
A|--3-----------1---------------6-------7-------8---------8---8--8--8---8-------|
E|--------------1---------------------------------------------------------------|
 
[Back To Clean]
e|--0-----------1-------------------------------------------------------------|
B|--1-----------3-------------------------------------------------------------|
G|--2-----------1---------------8-------9-------10----------------------------|
D|--3-----------3---------------8-------9-------10--------3--2--0-------------|
A|--3-----------1---------------6-------7-------8-----------------------------|
E|--------------1-------------------------------------------------------------|
 
 
[Chorus] distortion on
 
e|----------------------------------------------------------------------------|
B|----------------------------------------------------------------------------|
G|--7-7---7-7-7-----------------------10-10---10-10-10-----5-5---5-5-5--------|
D|--7-7---7-7-7------8-8---8-8-8------10-10---10-10-10-----5-5---5-5-5--------|
A|--5-5---5-5-5------8-8---8-8-8------8--8----8--8--8------3-3---3-3-3--------|
E|-------------------6-6---6-6-6----------------------------------------------|
 
  [PM]       [PM]           [PM-------------------------------------------------]
e|----------------------------------------------------------------------------------------|
B|-------------------------------------------------------------------------------------3--|
G|-------------------3-------1-1-----3-3-3-3-3-3---2-2--0-0-0-0-----1-1-----3-3-2------2--|
D|---------3---------3-----------3-3------------------------------------3-3--------3-2-0--|
A|---------3---1-1---1--------------------------------------------------------------------|
E|-1-1-----1------------------------------------------------------------------------------|
 
                     [PM-]     [PM]    [PM---]    [PM]   [PM]
e|----------------------------------------------------------------------------|
B|----------------------------------------------------------------------------|
G|------3-----3-3-3---------3-------3------------------3-------3--------------|
D|------3-----3-3-3---------3-------3------------------3-------3--------------|
A|------1-----1-1-1--1-1-1--1--1-1--1--1-1-1-1-----0-0-0-0-0-0 0-0-----0------|
E|------------------------------------------------------------------1-3-------|
 
e|-----------------------------------------------------------------------------|
B|-----------------------------------------------------------------------------|
G|------3-----3-3-3---------3-------3------------------3-------3-------------3-|
D|------3-----3-3-3--[PM-]--3--[PM]-3--[PM---]----[PM]-3-[PM]--3-----10--7---3-|
A|------1-----1-1-1--1-1-1--1--1-1--1--1-1-1-1-----0-0-0-0-0-0 0-0---10--7---1-|
E|-------------------------------------------------------------------8---5-----|
 
 [Solo]
 
e|--------------------------------------------------------------------------------|
B|---17b up then down twice--17---------------------------------------------------|
G|------------------------------17--12/14--17b up then down---12b up then down--10|
D|--------------------------------------------------------------------------------|
A|--------------------------------------------------------------------------------|
E|--------------------------------------------------------------------------------|
 
 [Bridge/fill]
 
e|-------------------------12-13---------------------------12-13-------------|
B|-------------------------13-13---------------------------13-13-------------|
G|---------------------------------------------------------------------------|
D|--------3------------3-----------------------------------------------------|
A|--0--1-----0---0--1---------------------3--------------3-------------------|
E|----------------------------------0--1-----0--0--1--1----------------------|
 
 
e|-------------------------12-13---------------------------12-13----------15--17-13----12-13-|
B|-------------------------13-13---------------------------13-13------13---------------13-13-|
G|-------------------------------------------------------------------------------------------|
D|--------3------------3---------------------------------------------------------------------|
A|--0--1-----0---0--1---------------------3--------------3-----------------------------------|
E|----------------------------------0--1-----0--0--1--1--------------------------------------|
 
 [Verse 2][with slight difference]                     [PM------------]
e|--0-----------1------------------------------------------[distortion on]----|
B|--1-----------3------------------------------------------------------ ------|
G|--2-----------1---------------8-------9-------10---------10------10---------|
D|--3-----------3---------------8-------9-------10-------10--10---10----------|
A|--3-----------1---------------6-------7-------8-------8------8-8------------|
E|--------------1--------------------------------------8--------8-------------|
 
[Back To Clean]
e|--0-----------1-------------------------------------------------------------|
B|--1-----------3-------------------------------------------------------------|
G|--2-----------1---------------8-------9-------10----------------------------|
D|--3-----------3---------------8-------9-------10--------3--2--0-------------|
A|--3-----------1---------------6-------7-------8-----------------------------|
E|--------------1-------------------------------------------------------------|
 
 [Chorus][Again slightly different]
e|----------------------------------------------------------------------------|
B|----------------------------------------------------------------------------|
G|--7-7---7-7-7-----------------------10-10---10-10-10-----5-5---5-5-5--------|
D|--7-7---7-7-7------8-8---8-8-8------10-10---10-10-10-----5-5---5-5-5--------|
A|--5-5---5-5-5------8-8---8-8-8------8--8----8--8--8------3-3---3-3-3--------|
E|-------------------6-6---6-6-6----------------------------------------------|
 
   [PM]       [PM]           [PM---------------------------------------------------------------------]
e|-----------------------------------------------------------------------------------------------------|
B|-----------------------------------------------------------------------------------------------------|
G|-------------------3-------1-1-----3-3-3-3-3-3---2-2--0-0-0-0-----1-1-----3-3-3-3-3-3---2-2--0-0-0-0-|
D|---------3---------3-----------3-3------------------------------------3-3----------------------------|
A|---------3---1-1---1---------------------------------------------------------------------------------|
E|-1-1-----1-------------------------------------------------------------------------------------------|
 
 [Returns to normal]
e|----------------------------------------------------------------------------|
B|----------------------------------------------------------------------------|
G|--7-7---7-7-7-----------------------10-10---10-10-10-----5-5---5-5-5--------|
D|--7-7---7-7-7------8-8---8-8-8------10-10---10-10-10-----5-5---5-5-5--------|
A|--5-5---5-5-5------8-8---8-8-8------8--8----8--8--8------3-3---3-3-3--------|
E|-------------------6-6---6-6-6----------------------------------------------|
 
  [PM]        [PM]         [PM--------------------------------------------------]
e|----------------------------------------------------------------------------------------|
B|-------------------------------------------------------------------------------------3--|
G|-------------------3-------1-1-----3-3-3-3-3-3---2-2--0-0-0-0-----1-1-----3-3-2------2--|
D|---------3---------3-----------3-3------------------------------------3-3--------3-2-0--|
A|---------3---1-1---1--------------------------------------------------------------------|
E|-1-1-----1------------------------------------------------------------------------------|
 
 [Slightly different at the end][It repeats into itself]
                     [PM-]    [PM]     [PM---]    [PM]   [PM]
e|----------------------------------------------------------------------------|
B|----------------------------------------------------------------------------|
G|------3-----3-3-3---------3-------3------------------3-------3--------------|
D|------3-----3-3-3---------3-------3------------------3-------3--------------|
A|------1-----1-1-1--1-1-1--1--1-1--1--1-1-1-1-----0-0-0-0-0-0 0-0-----0------|
E|------------------------------------------------------------------1-3-------|
 
                     [PM]      [PM]   [PM---]     [PM]   [PM]
e|-----------------------------------------------------------------------------|
B|-----------------------------------------------------------------------------|
G|------3-----3-3-3---------3-------3------------------3-------3---------------|
D|------3-----3-3-3---------3-------3------------------3-------3-----10--7-----|
A|------1-----1-1-1--1-1-1--1--1-1--1--1-1-1-1-----0-0-0-0-0-0 0-0---10--7-----|
E|-------------------------------------------------------------------8---5-----|
 
                     [PM-]             [PM---]    [PM]   [PM]
e|----------------------------------------------------------------------------|
B|----------------------------------------------------------------------------|
G|------3-----3-3-3---------3-------3------------------3-------3--------------|
D|------3-----3-3-3---------3-------3------------------3-------3--------------|
A|------1-----1-1-1--1-1-1--1--1-1--1--1-1-1-1-----0-0-0-0-0-0 0-0-----0------|
E|------------------------------------------------------------------1-3-------|
 
                     [PM-]     [PM]    [PM---]    [PM]   [PM]
e|-----------------------------------------------------------------------------|
B|-----------------------------------------------------------------------------|
G|------3-----3-3-3---------3-------3------------------3-------3-------------3-|
D|------3-----3-3-3---------3-------3------------------3-------3-----10--7---3-|
A|------1-----1-1-1--1-1-1--1--1-1--1--1-1-1-1-----0-0-0-0-0-0 0-0---10--7---1-|
E|-------------------------------------------------------------------8---5-----|
 
  [Outro]
     ~~~              ~~~                                                     ~~~
e|--------------------------------------------------------------------------------|
B|--------------------13--------17b up then down-17-------------------------------|
G|--/7--------9-10-12------------------------------17--12/14--17b up then down-17-|
D|--------------------------------------------------------------------------------|
A|--------------------------------------------------------------------------------|
E|--------------------------------------------------------------------------------|
                                                                   ~~~~
e|-----------20--------------------------------------------------------------------|
B|------------------20b up and then slow release down-----18-17-18-----------------|
G|--------17-------------------------------------------------------17--------------|
D|------15-------------------------------------------------------------------------|
A|----15---------------------------------------------------------------------------|
E|---------------------------------------------------------------------------------|
            
Submit corrections

↑ Back to top | Tablatures and chords for acoustic guitar and electric guitar, ukulele, drums are parodies/interpretations of the original songs. You may use it for private study, scholarship, research or language learning purposes only