» » »

Starsailor - Lullaby Tabs

Artists:  A B C D E F G H I J K L M N O P Q R S T U V W X Y Z # 

Lullaby Tabs

(ver. 1) Click to play this song!
Starsailor
 Rating:
4/5 (4 votes)

 Lullaby lessons Tabs too difficult? Try these video lessons and learn fast
 
                One of Starsailor's first hits, and one of their finest. Couldn't find a tab, so I've done my best here. Sounds great on your own. Any corrections or comments welcome, I know there's a bit in the chorus which isn't 100%, but it sounds right enough. Hope this helps!

Chords
D - xx0232
D2- xx0222
A - 002220
A7- 002020
G - 320033
Cadd9 - 032033




--Intro--
|-----------------3------|-----------------2------|
|--Riff A-----3-------3--|--Riff B-----3-------3--|
|---------------5---5----|---------------5---5----|
|-----------0------------|-----------0------------|
|------------------------|------------------------|
|------------------------|------------------------|

Play Riffs A and B about four times each, then strum, and blend into D.


--Verse--
[D]Get back on your feet again
[D2]So insin[A]cere
Quiet A[A7]merican
I held you so [G]dear


--Chorus--
[D]Lullaby
[G]You're twisting my [D]words tonight
[G]If you get [C]high on [G]life
Don't [Cadd9]leave me be[D]hind


--Bridge--
Play Riffs A and B four times each again, then strum them instead.
And over the top of that, the electric guitar solo part.
|----------------------------------------------------------|
|---------8-8-8/10-10-10-10-10-------------------8-8-8/10--|
|--5/7-7-------------------------5-5-5/7---5/7-------------|
|----------------------------------------------------------|
|----------------------------------------------------------|
|----------------------------------------------------------|


|----14----14----15/14-14----14-----|
|-15----15----15----------15----15--|
|-----------------------------------|
|-----------------------------------|
|-----------------------------------|
|-----------------------------------|

And that's it! Dead easy, sounds great.
            
Submit corrections


        Lullaby lessons Hard to play? Try these video lessons and learn fast Lullaby lessons
        
↑ Back to top | Tablatures and chords for acoustic guitar and electric guitar, ukulele, drums are parodies/interpretations of the original songs. You may use it for private study, scholarship, research or language learning purposes only