Home » S » Starfucker »

Starfucker - Just Like You Tabs

Artists:  A B C D E F G H I J K L M N O P Q R S T U V W X Y Z # 

Just Like You Tabs

(ver. 1) Click to play this song!
Starfucker
  Gtr I Lead [Intro, Verse, Chorus]
   |      |   |   |     |     |    |   |    |      |   |   |     |     |    |   |
e|--------------------|-------------------|--------------------|--------------------|
B|--------------------|-------------------|--------------------|--------------------|
G|--------------------|-------------------|--------------------|--------------------|
D|-2----4---2-4-------|-2----4-/7\-4------|-2----4---2-4-------|-2----4-/7\-4-------|
A|--------------------|-------------------|--------------------|--------------------|
D|--------------------|-------------------|--------------------|--------------------|
 |
 | Gtr II Rhythm [Intro, Verse, Chorus]
 | |    |    |    |     |    |    |   |     |    |    |    |     |    |    |   |
e|--------------------|-------------------|--------------------|--------------------|
B|--------------------|-------------------|--------------------|--------------------|
G|--------------------|-------------------|--------------------|--------------------|
D|--------------------|-------------------|------5---------5---|------4--------4----|
A|------0---------0---|------2--------2---|-7--7---------7---7-|-5--5--------5---5--|
D|-0--0---------0---0-|-5--5--------5---5-|--------------------|--------------------|
 
   |      |   |   |     |     |    |   |
e|--------------------|-------------------|
B|--------------------|-------------------|
G|--------------------|-------------------|
D|-2----4---2-4-------|-2----4-/7\-4------|
A|--------------------|-------------------|
D|--------------------|-------------------|
 |
 | |    |    |    |     |    |    |   |
e|--------------------|-------------------|
B|--------------------|-------------------|
G|--------------------|-------------------|
D|------2---------2---|------2--------2---|
A|-4--4---------4---4-|-3--3--------3---3-|
D|--------------------|-------------------|
 
 [Ending] 2:00 Gtr I Lead only
   |    |   |  |    |   |    |  |   |    |   |  |   |   |    |  |
e|----------------|---------------|---------------|---------------|
B|----------------|---------------|---------------|---------------|
G|----------------|---------------|---------------|---------------|
D|-2--4---2-4-----|-2--4-/7\-4----|-2--4---2-4----|-2--4-/7\-4----|
A|----------------|---------------|---------------|---------------|
D|----------------|---------------|---------------|---------------|
 
   |    |  |  |
e|---------------||
B|---------------||
G|---------------||
D|-2--4----------||
A|---------------||
D|---------------||
            
Submit corrections

↑ Back to top | Tablatures and chords for acoustic guitar and electric guitar, ukulele, drums are parodies/interpretations of the original songs. You may use it for private study, scholarship, research or language learning purposes only