» » »

Spinners - Living A Little Laughing A Little Bass

Artists:  A B C D E F G H I J K L M N O P Q R S T U V W X Y Z # 

Living A Little Laughing A Little Bass

(ver. 1) Click to play this song!
Spinners
 Rating:
1.9/5 (29 votes)

 Living A Little Laughing A Little lessons Tabs too difficult? Try these video lessons and learn fast
 
                Intro

|------------|-----------------|-----------|-----------|
|------------|-1-1-1-1-1-1-1-1-|---------1-|---------1-|
|------------|-----------------|-----------|-----------|
|-1--1----1--|-----------------|-1---------|-1---------|

|-----------|----------|---------|
|---------1-|----------|---------|
|-----------|----------|---------|
|-1---------|-1--------|---------|

Verse

|--------------|--------------|----------|-------------|
|--------------|--------------|----------|-------2-3---|
|------------3-|-----3-5--3---|--------5-|-----5-----3-|
|-1----3-5-6---|---5--------6-|----------|-------------|

|--------------|--------------|-----------|------------|
|------------3-|-----3-5--3---|---------5-|------5-3---|
|-1----6-5-6---|---5--------6-|------5----|----------6-|
|--------------|--------------|-----------|------------|

|---------|-8------------|
|---------|------1-1-1-1-|
|---------|--------------|
|---------|--------------|

|--------------|--------------|----------|---------------|
|--------------|--------------|----------|-----2-3-2-3---|
|------------3-|-----3-5--3---|--------5-|---5---------3-|
|-1----3-5-6---|---5--------6-|----------|---------------|

|--------------|--------------|-----------|------------|
|------------3-|-----3-5--3---|---------5-|------5-3---|
|-1----6-5-6---|---5--------6-|------5----|----------6-|
|--------------|--------------|-----------|------------|

|---------|-----------------|
|---------|-4-4-4-4-1-1-1---|
|---------|-----------------|
|---------|---------------1-|

Chorus

|--------------|--------------|----------------|---------------|
|--------------|---------35---|----------------|---------------|
|--------1-----|--------5-----|----6*-x6-6-6---|----6*----6----|
|----111---1-3-|----333-----4-|-4------------4-|-4-----x4----1-|

|--------------|--------------|----------------|-----------|
|--------------|---------35---|----------------|-----------|
|--------1-----|--------5-----|----6*-x6-6-6---|----6------|
|----111---1-3-|----333-----4-|-4------------4-|-4---------|

Verse

|--------------|--------------|-----------|-------------|
|--------------|--------------|-----------|-------2-3---|
|------------3-|-----3-5--3---|---------5-|-----5-----3-|
|-1----3-5-6---|---5--------6-|------5----|-------------|

|--------------|--------------|-----------|------------|
|------------3-|-----3-5--3---|---------5-|------5-3---|
|-1----6-5-6---|---5--------6-|------5----|----------6-|
|--------------|--------------|-----------|------------|

|---------|-8------------|
|---------|------1-1-1-1-|
|---------|--------------|
|---------|--------------|

|--------------|--------------|-----------|----------------|
|--------------|--------------|-----------|------2-322-3---|
|------------3-|-----3-5--3---|---------5-|--535---------3-|
|-1----3-5-6---|---5--------6-|------5----|----------------|

|--------------|--------------|-----------|------------|
|------------3-|-----3-5--3---|---------5-|------5-3---|
|-1----6-5-6---|---5--------6-|------5----|----------6-|
|--------------|--------------|-----------|------------|

|---------|-----------------|
|---------|-4-4-4-4-1-1-1---|
|---------|-----------------|
|---------|---------------1-|

Chorus

|--------------|--------------|----------------|----------------|
|--------------|---------35---|----------------|----------------|
|--------1-----|------5-5-----|----6*-x6-6-6---|----6*----6-6---|
|----111---1-3-|----3-------4-|-4------------4-|-4-----x4-----1-|

|----------------|--------------|----------------|----------------|
|----------------|---------35-6-|-6--------------|----------------|
|--1-------1-----|--------5-----|----6*-x6-6-6---|----6*----6-6---|
|----1-111---1-3-|----333-------|--------------4-|-4-----x4-----1-|

|----------------|--------------|----------------|---------------|
|----------------|---------35-6-|-6--------------|---------------|
|--1-------1-----|--------5-----|----6*-x6-6-6---|----6*----6----|
|----1-111---1-3-|----333-------|--------------4-|-4-----x4----1-|

|----------------|--------------|----------------|----------------|
|----------------|-----353-35---|----------------|----------------|
|--1-------1-----|----5---5-----|----6*-x6-6-6---|----6*----6-6---|
|----1-1-1---1-3-|------------4-|-4------------4-|-4-----x4-----1-|

|----------------|--------------|----------------|----------------|
|----------------|---------35-6-|-6--------------|----------------|
|--1-------1-----|--------5-----|----6*-x6-6-6---|----6*----6-6---|
|----1-1-1---1-3-|----333-------|--------------4-|-4-----x4-----1-|

|----------------|--------------|----------------|----------------|
|----------------|---------35-6-|-6--------------|----------------|
|--1-------1-----|------535-----|----6*-x6-6-6---|----6*----6-6---|
|----1-111---1-3-|----3---------|--------------4-|-4-----x4-----1-|

|----------------|--------------|----------------|----------------|
|----------------|---------35-6-|-6--------------|----------------|
|--1-------1-----|--------5-----|----6*-x6-6-6---|----6*----6-6---|
|----1-111---1-3-|----333-------|--------------4-|-4-----x4-----1-|

|----------------|--------------|----------------|----------------|
|----------------|-----353-35-6-|-6--------------|----------------|
|--1-------1-----|----5---5-----|----6*-x6-6-6---|----6*----6-6---|
|----1-111---1-3-|--------------|--------------4-|-4-----x4-----1-|

|----------------|--------------|----------------|----------------|
|----------------|---------35-6-|-6--------------|----------------|
|--1-------1-----|------535-----|----6*-x6-6-6---|----6*----6-6---|
|----1-111---1-3-|----3---------|--------------4-|-4-----x4-----1-|

|----------------|--------------|----------------|----------------|
|----------------|---------35-6-|-6--------------|----------------|
|--1-------1-----|--------5-----|----6*-x6-6-6---|----6*----6-6---|
|----1-111---1-3-|----333-------|--------------4-|-4-----x4-----1-|

Ending

|---------------|-------------|----------------|-----------------*|
|---------------|-------------|----------------|-----------------*|
|----1-3-5-6--5-|--4--------6-|--66666666666666|-6666666666666666*|
|--3------------|------4-4----|----------------|-----------------*|            
Submit corrections


        Living A Little Laughing A Little lessons Hard to play? Try these video lessons and learn fast Living A Little Laughing A Little lessons
        
↑ Back to top | Tablatures and chords for acoustic guitar and electric guitar, ukulele, drums are parodies/interpretations of the original songs. You may use it for private study, scholarship, research or language learning purposes only