» » »

Spinners - Ill Be Around Tabs

Artists:  A B C D E F G H I J K L M N O P Q R S T U V W X Y Z # 

Ill Be Around Tabs

(ver. 1) Click to play this song!
Spinners
 Rating:
3.8/5 (22 votes)

 Ill Be Around  lessons Tabs too difficult? Try these video lessons and learn fast
 
                 Intro
  Q=110
                Emaj7             G#m F#6               G#m EmaG#m
 4/4
  Gtr I (Clean El. Gtr.)
  H     E  E  E  E    +H      +E   Q   E    +H      +E   Q   E
|---------------11-|-(11)----(11)-11--11-|-(11)----(11)-11--11--|
|------------12----|---------------------|----------------------|
|------11S13-----8-|--(8)-----(8)--8---8-|--(8)-----(8)--8---8--|
|-------------9----|---------------------|----------------------|
|-------9S11-------|---------------------|----------------------|
|------------------|---------------------|----------------------|
|
| Gtr II (Clean El. Gtr.)
| H     Q     E  E    +H      +E   Q   E    +H      +E   Q   E
|------------------|---------------4---2-|--(2)-----(2)--4------|
|----------------4-|--(4)-----(4)--4---4-|--(4)-----(4)--4---4--|
|----------------4-|--(4)-----(4)--4---3-|--(3)-----(3)--4---4--|
|----------------2-|--(2)-----(2)--6---4-|--(4)-----(4)--6---2--|
|------------------|---------------------|----------------------|
|------------------|---------------------|----------------------|


               G#m F#6                    Emaj7              G#m  F#6
   +H      +E   Q   E    +H      E   E  E  E    +H       +E   Q    E
|-(11)----(11)-11--11-|-(11)--------------11-|-(11)-----(11)-11---11-|
|---------------------|----------------12----|-----------------------|
|--(8)-----(8)--8---8-|--(8)----11S=13-----8-|--(8)------(8)--8----8-|
|---------------------|-----------------9----|-----------------------|
|---------------------|----------9S=11-------|-----------------------|
|---------------------|----------------------|-----------------------|
|
|  +H      +E   Q   E    +H     +E   Q     E    +H       +E   Q    E
|---------------4---2-|--(2)----(2)--4-------|----------------4----2-|
|--(4)-----(4)--4---4-|--(4)----(4)--4-----4-|--(4)------(4)--4----4-|
|--(4)-----(4)--4---3-|--(3)----(3)--4-----4-|--(4)------(4)--4----3-|
|--(2)-----(2)--6---4-|--(4)----(4)--6-----2-|--(2)------(2)--6----4-|
|---------------------|----------------------|-----------------------|
|---------------------|----------------------|-----------------------|
|
| Gtr III (Clean El. Gtr.)
|   W                     W                      Q   q    Q     q
|---------------------|----------------------|-------4----------4----|
|---------------------|----------------------|-------4----------4----|
|---------------------|----------------------|-----------------------|
|---------------------|----------------------|-----------------------|
|---------------------|----------------------|-----------------------|
|---------------------|----------------------|-----------------------|


                G#m  Emaj7              G#m  F#6               G#m   Emaj7
   +H       +E   Q    E    +H       +E   Q    E    +H       E   E  E  E
|-(11)-----(11)-11---11-|-(11)-----(11)-11---11-|-(11)---------------11-||
|-----------------------|-----------------------|-----------------12----||
|--(8)------(8)--8----8-|--(8)------(8)--8----8-|--(8)-----11S=13-----8-||
|-----------------------|-----------------------|------------------9----||
|-----------------------|-----------------------|-----------9S=11-------||
|-----------------------|-----------------------|-----------------------||
|
|  +H       +E   Q    E    +H       +E   Q    E    +H      +E   Q     E
|--(2)------(2)--4------|----------------4----2-|--(2)-----(2)--4-------||
|--(4)------(4)--4----4-|--(4)------(4)--4----4-|--(4)-----(4)--4-----4-||
|--(3)------(3)--4----4-|--(4)------(4)--4----3-|--(3)-----(3)--4-----4-||
|--(4)------(4)--6----2-|--(2)------(2)--6----4-|--(4)-----(4)--6-----2-||
|-----------------------|-----------------------|-----------------------||
|-----------------------|-----------------------|-----------------------||
|
|   Q   q    Q     q        Q   q    Q     q        Q   q   Q      q
|-------2----------2----|-------4----------4----|-------2----------2----||
|-------4----------4----|-------4----------4----|-------4----------4----||
|-----------------------|-----------------------|-----------------------||
|-----------------------|-----------------------|-----------------------||
|-----------------------|-----------------------|-----------------------||
|-----------------------|-----------------------|-----------------------||


   1st & 3rd Verses
    Emaj7         G#m  F#6                G#m  Emaj7              G#m  F#6
     +H       +E   Q    E    +H       +E   Q    E    +H       +E   Q    E
||--(11)-----(11)-11---11-|-(11)-----(11)-11---11-|-(11)-----(11)-11---11-|
||o-----------------------|-----------------------|-----------------------|
||---(8)------(8)--8----8-|--(8)------(8)--8----8-|--(8)------(8)--8----8-|
||------------------------|-----------------------|-----------------------|
||o-----------------------|-----------------------|-----------------------|
||------------------------|-----------------------|-----------------------|
|
|    +H       +E   Q    E    +H       +E   Q    E    +H       +E   Q    E
||-----------------4----2-|--(2)------(2)--4------|----------------4----2-|
||o--(4)------(4)--4----4-|--(4)------(4)--4----4-|--(4)------(4)--4----4-|
||---(4)------(4)--4----3-|--(3)------(3)--4----4-|--(4)------(4)--4----3-|
||---(2)------(2)--6----4-|--(4)------(4)--6----2-|--(2)------(2)--6----4-|
||o-----------------------|-----------------------|-----------------------|
||------------------------|-----------------------|-----------------------|
|
|     Q   q    Q     q        Q   q    Q     q        Q   q    Q     q
||--------4----------4----|-------2----------2----|-------4----------4----|
||o-------4----------4----|-------4----------4----|-------4----------4----|
||------------------------|-----------------------|-----------------------|
||------------------------|-----------------------|-----------------------|
||o-----------------------|-----------------------|-----------------------|
||------------------------|-----------------------|-----------------------|


                G#m  Emaj7              G#m  F#6                G#m  Emaj7
   +H       +E   Q    E    +H       +E   Q    E    +H       +E   Q    E
|-(11)-----(11)-11---11-|-(11)-----(11)-11---11-|-(11)-----(11)-11---11-|
|-----------------------|-----------------------|-----------------------|
|--(8)------(8)--8----8-|--(8)------(8)--8----8-|--(8)------(8)--8----8-|
|-----------------------|-----------------------|-----------------------|
|-----------------------|-----------------------|-----------------------|
|-----------------------|-----------------------|-----------------------|
|
|  +H       +E   Q    E    +H       +E   Q    E    +H       +E   Q    E
|--(2)------(2)--4------|----------------4----2-|--(2)------(2)--4------|
|--(4)------(4)--4----4-|--(4)------(4)--4----4-|--(4)------(4)--4----4-|
|--(3)------(3)--4----4-|--(4)------(4)--4----3-|--(3)------(3)--4----4-|
|--(4)------(4)--6----2-|--(2)------(2)--6----4-|--(4)------(4)--6----2-|
|-----------------------|-----------------------|-----------------------|
|-----------------------|-----------------------|-----------------------|
|
|   Q   q    Q     q        Q   q    Q     q        Q   q    Q     q
|-------2----------2----|-------4----------4----|-------2----------2----|
|-------4----------4----|-------4----------4----|-------4----------4----|
|-----------------------|-----------------------|-----------------------|
|-----------------------|-----------------------|-----------------------|
|-----------------------|-----------------------|-----------------------|
|-----------------------|-----------------------|-----------------------|


                                                  2nd, 4th & 5th Verses
                                                $
                G#m  F#6                G#m  Emaj7               G#m  F#6
   +H       +E   Q    E    +H       +E   Q    E     +H       +E   Q    E
|-(11)-----(11)-11---11-|-(11)-----(11)-11---11-||-(11)-----(11)-11---11-|
|-----------------------|-----------------------||-----------------------|
|--(8)------(8)--8----8-|--(8)------(8)--8----8-||--(8)------(8)--8----8-|
|-----------------------|-----------------------||-----------------------|
|-----------------------|-----------------------||-----------------------|
|-----------------------|-----------------------||-----------------------|
|
|  +H       +E   Q    E    +H       +E   Q    E     +H       +E   Q    E
|----------------4----2-|--(2)------(2)--4------||----------------4----2-|
|--(4)------(4)--4----4-|--(4)------(4)--4----4-||--(4)------(4)--4----4-|
|--(4)------(4)--4----3-|--(3)------(3)--4----4-||--(4)------(4)--4----3-|
|--(2)------(2)--6----4-|--(4)------(4)--6----2-||--(2)------(2)--6----4-|
|-----------------------|-----------------------||-----------------------|
|-----------------------|-----------------------||-----------------------|
|
|   Q   q    Q     q        Q   q    Q     q         Q   q    Q     q
|-------4----------4----|-------2----------2----||-------4----------4----|
|-------4----------4----|-------4----------4----||-------4----------4----|
|-----------------------|-----------------------||-----------------------|
|-----------------------|-----------------------||-----------------------|
|-----------------------|-----------------------||-----------------------|
|-----------------------|-----------------------||-----------------------|


                G#m  Emaj7              G#m  F#6                G#m  Emaj7
   +H       +E   Q    E    +H       +E   Q    E    +H       +E   Q    E
|-(11)-----(11)-11---11-|-(11)-----(11)-11---11-|-(11)-----(11)-11---11-|
|-----------------------|-----------------------|-----------------------|
|--(8)------(8)--8----8-|--(8)------(8)--8----8-|--(8)------(8)--8----8-|
|-----------------------|-----------------------|-----------------------|
|-----------------------|-----------------------|-----------------------|
|-----------------------|-----------------------|-----------------------|
|
|  +H       +E   Q    E    +H       +E   Q    E    +H       +E   Q    E
|--(2)------(2)--4------|----------------4----2-|--(2)------(2)--4------|
|--(4)------(4)--4----4-|--(4)------(4)--4----4-|--(4)------(4)--4----4-|
|--(3)------(3)--4----4-|--(4)------(4)--4----3-|--(3)------(3)--4----4-|
|--(4)------(4)--6----2-|--(2)------(2)--6----4-|--(4)------(4)--6----2-|
|-----------------------|-----------------------|-----------------------|
|-----------------------|-----------------------|-----------------------|
|
|   Q   q    Q     q        Q   q    Q     q        Q   q    Q     q
|-------2----------2----|-------4----------4----|-------2----------2----|
|-------4----------4----|-------4----------4----|-------4----------4----|
|-----------------------|-----------------------|-----------------------|
|-----------------------|-----------------------|-----------------------|
|-----------------------|-----------------------|-----------------------|
|-----------------------|-----------------------|-----------------------|


                G#m  F#6                G#m  Emaj7              G#m  F#6
   +H       +E   Q    E    +H       +E   Q    E    +H       +E   Q    E
|-(11)-----(11)-11---11-|-(11)-----(11)-11---11-|-(11)-----(11)-11---11-|
|-----------------------|-----------------------|-----------------------|
|--(8)------(8)--8----8-|--(8)------(8)--8----8-|--(8)------(8)--8----8-|
|-----------------------|-----------------------|-----------------------|
|-----------------------|-----------------------|-----------------------|
|-----------------------|-----------------------|-----------------------|
|
|  +H       +E   Q    E    +H       +E   Q    E    +H       +E   Q    E
|----------------4----2-|--(2)------(2)--4------|----------------4----2-|
|--(4)------(4)--4----4-|--(4)------(4)--4----4-|--(4)------(4)--4----4-|
|--(4)------(4)--4----3-|--(3)------(3)--4----4-|--(4)------(4)--4----3-|
|--(2)------(2)--6----4-|--(4)------(4)--6----2-|--(2)------(2)--6----4-|
|-----------------------|-----------------------|-----------------------|
|-----------------------|-----------------------|-----------------------|
|
|   Q   q    Q     q        Q   q    Q     q        Q   q    Q     q
|-------4----------4----|-------2----------2----|-------4----------4----|
|-------4----------4----|-------4----------4----|-------4----------4----|
|-----------------------|-----------------------|-----------------------|
|-----------------------|-----------------------|-----------------------|
|-----------------------|-----------------------|-----------------------|
|-----------------------|-----------------------|-----------------------|


                          Chorus
                G#m  Emaj7               G#m  F#6                G#m  Emaj7
   +H       +E   Q    E     +H       +E   Q    E    +H       +E   Q    E
|-(11)-----(11)-11---11-||-(11)-----(11)-11---11-|-(11)-----(11)-11---11-|
|-----------------------||-----------------------|-----------------------|
|--(8)------(8)--8----8-||--(8)------(8)--8----8-|--(8)------(8)--8----8-|
|-----------------------||-----------------------|-----------------------|
|-----------------------||-----------------------|-----------------------|
|-----------------------||-----------------------|-----------------------|
|
|  +H       +E   Q    E     +H       +E   Q    E    +H       +E   Q    E
|--(2)------(2)--4------||----------------4----2-|--(2)------(2)--4------|
|--(4)------(4)--4----4-||--(4)------(4)--4----4-|--(4)------(4)--4----4-|
|--(3)------(3)--4----4-||--(4)------(4)--4----3-|--(3)------(3)--4----4-|
|--(4)------(4)--6----2-||--(2)------(2)--6----4-|--(4)------(4)--6----2-|
|-----------------------||-----------------------|-----------------------|
|-----------------------||-----------------------|-----------------------|
|
|   Q   q    Q     q         Q   q    Q     q        Q   q    Q     q
|-------2----------2----||-------4----------4----|-------2----------2----|
|-------4----------4----||-------4----------4----|-------4----------4----|
|-----------------------||-----------------------|-----------------------|
|-----------------------||-----------------------|-----------------------|
|-----------------------||-----------------------|-----------------------|
|-----------------------||-----------------------|-----------------------|


                G#m  F#6                G#m  Emaj7              G#m  F#6
   +H       +E   Q    E    +H       +E   Q    E    +H       +E   Q    E
|-(11)-----(11)-11---11-|-(11)-----(11)-11---11-|-(11)-----(11)-11---11-|
|-----------------------|-----------------------|-----------------------|
|--(8)------(8)--8----8-|--(8)------(8)--8----8-|--(8)------(8)--8----8-|
|-----------------------|-----------------------|-----------------------|
|-----------------------|-----------------------|-----------------------|
|-----------------------|-----------------------|-----------------------|
|
|  +H       +E   Q    E    +H       +E   Q    E    +H       +E   Q    E
|----------------4----2-|--(2)------(2)--4------|----------------4----2-|
|--(4)------(4)--4----4-|--(4)------(4)--4----4-|--(4)------(4)--4----4-|
|--(4)------(4)--4----3-|--(3)------(3)--4----4-|--(4)------(4)--4----3-|
|--(2)------(2)--6----4-|--(4)------(4)--6----2-|--(2)------(2)--6----4-|
|-----------------------|-----------------------|-----------------------|
|-----------------------|-----------------------|-----------------------|
|
|   Q   q    Q     q        Q   q    Q     q        Q   q    Q     q
|-------4----------4----|-------2----------2----|-------4----------4----|
|-------4----------4----|-------4----------4----|-------4----------4----|
|-----------------------|-----------------------|-----------------------|
|-----------------------|-----------------------|-----------------------|
|-----------------------|-----------------------|-----------------------|
|-----------------------|-----------------------|-----------------------|


                                 1.
                 To Coda
                Emaj7
   +H     H          W            H        E  E  E  E
|-(11)------------|-------------|------------------11--||
|-----------------|-------------|---------------12----o||
|--(8)------------|-------------|---------11S13-----8--||
|-----------------|-------------|----------------9-----||
|-----------------|-------------|----------9S11-------o||
|-----------------|-------------|----------------------||
|
|  +H     E E E E   +H     H      E E E E  E  E  E  E
|--(2)----2-2-2---|-------------|----------------------||
|--(4)----4-4-4-4-|-(4)---------|---4-4-4--4--4--4--4-o||
|--(3)----3-3-3-4-|-(4)---------|---4-4-4--4--4--4--4--||
|--(4)----4-4-4-2-|-(2)---------|---2-2-2--2--2--2--2--||
|-----------------|-------------|---------------------o||
|-----------------|-------------|----------------------||
|
|   W                W            W
|-----------------|-------------|----------------------||
|-----------------|-------------|---------------------o||
|-----------------|-------------|----------------------||
|-----------------|-------------|----------------------||
|-----------------|-------------|---------------------o||
|-----------------|-------------|----------------------||


  2.
             D.S. al Coda &
       Emaj7                      Emaj7
   +H         E  E  E  E      +H         E  E  E  E
|-(11)----------------11--||-(11)----------------11-|
|------------------12-----||------------------12----|
|--(8)-------11S13-----8--||--(8)-------11S13-----8-|
|-------------------9-----||-------------------9----|
|-------------9S11--------||-------------9S11-------|
|-------------------------||------------------------|
|
|   E  E E E  E  E  E  E       E  E E E  E  E  E  E
|-------------------------||------------------------|
|------4-4-4--4--4--4--4--||------4-4-4--4--4--4--4-|
|------4-4-4--4--4--4--4--||------4-4-4--4--4--4--4-|
|------2-2-2--2--2--2--2--||------2-2-2--2--2--2--2-|
|-------------------------||------------------------|
|-------------------------||------------------------|
|
|   W                          W
|-------------------------||------------------------|
|-------------------------||------------------------|
|-------------------------||------------------------|
|-------------------------||------------------------|
|-------------------------||------------------------|
|-------------------------||------------------------|


   Out-Chorus
                  G#m  F#6                G#m  Emaj7
     +H       +E   Q    E    +H       +E   Q    E
||--(11)-----(11)-11---11-|-(11)-----(11)-11---11-|
||o-----------------------|-----------------------|
||---(8)------(8)--8----8-|--(8)------(8)--8----8-|
||------------------------|-----------------------|
||o-----------------------|-----------------------|
||------------------------|-----------------------|
|
|    +H       +E   Q    E    +H       +E   Q    E
||-----------------4----2-|--(2)------(2)--4------|
||o--(4)------(4)--4----4-|--(4)------(4)--4----4-|
||---(4)------(4)--4----3-|--(3)------(3)--4----4-|
||---(2)------(2)--6----4-|--(4)------(4)--6----2-|
||o-----------------------|-----------------------|
||------------------------|-----------------------|
|
|     Q   q    Q     q        Q   q    Q     q
||--------4----------4----|-------2----------2----|
||o-------4----------4----|-------4----------4----|
||------------------------|-----------------------|
||------------------------|-----------------------|
||o-----------------------|-----------------------|
||------------------------|-----------------------|


                G#m  F#6                G#m  Emaj7              G#m  F#6
   +H       +E   Q    E    +H       +E   Q    E    +H       +E   Q    E
|-(11)-----(11)-11---11-|-(11)-----(11)-11---11-|-(11)-----(11)-11---11-|
|-----------------------|-----------------------|-----------------------|
|--(8)------(8)--8----8-|--(8)------(8)--8----8-|--(8)------(8)--8----8-|
|-----------------------|-----------------------|-----------------------|
|-----------------------|-----------------------|-----------------------|
|-----------------------|-----------------------|-----------------------|
|
|  +H       +E   Q    E    +H       +E   Q    E    +H       +E   Q    E
|----------------4----2-|--(2)------(2)--4------|----------------4----2-|
|--(4)------(4)--4----4-|--(4)------(4)--4----4-|--(4)------(4)--4----4-|
|--(4)------(4)--4----3-|--(3)------(3)--4----4-|--(4)------(4)--4----3-|
|--(2)------(2)--6----4-|--(4)------(4)--6----2-|--(2)------(2)--6----4-|
|-----------------------|-----------------------|-----------------------|
|-----------------------|-----------------------|-----------------------|
|
|   Q   q    Q     q        Q   q    Q     q        Q   q    Q     q
|-------4----------4----|-------2----------2----|-------4----------4----|
|-------4----------4----|-------4----------4----|-------4----------4----|
|-----------------------|-----------------------|-----------------------|
|-----------------------|-----------------------|-----------------------|
|-----------------------|-----------------------|-----------------------|
|-----------------------|-----------------------|-----------------------|


                Emaj7
   +H     H          W            H        E  E  E  E
|-(11)------------|-------------|------------------11--||
|-----------------|-------------|---------------12----o||
|--(8)------------|-------------|---------11S13-----8--||
|-----------------|-------------|----------------9-----||
|-----------------|-------------|----------9S11-------o||
|-----------------|-------------|----------------------||
|
|  +H     E E E E   +H     H      E E E E  E  E  E  E
|--(2)----2-2-2---|-------------|----------------------||
|--(4)----4-4-4-4-|-(4)---------|---4-4-4--4--4--4--4-o||
|--(3)----3-3-3-4-|-(4)---------|---4-4-4--4--4--4--4--||
|--(4)----4-4-4-2-|-(2)---------|---2-2-2--2--2--2--2--||
|-----------------|-------------|---------------------o||
|-----------------|-------------|----------------------||
|
|   W                W            W
|-----------------|-------------|----------------------||
|-----------------|-------------|---------------------o||
|-----------------|-------------|----------------------||
|-----------------|-------------|----------------------||
|-----------------|-------------|---------------------o||
|-----------------|-------------|----------------------||            
Submit corrections


        Ill Be Around  lessons Hard to play? Try these video lessons and learn fast Ill Be Around  lessons
        
↑ Back to top | Tablatures and chords for acoustic guitar and electric guitar, ukulele, drums are parodies/interpretations of the original songs. You may use it for private study, scholarship, research or language learning purposes only