Home » S » Spiderbait »

Spiderbait - 7 Zark Tabs

Artists:  A B C D E F G H I J K L M N O P Q R S T U V W X Y Z # 

7 Zark Tabs

(ver. 1) Click to play this song!
Spiderbait
i'll put it in order, coz im feelin nice, but i wont bother to show timing


PM = palm Mute

main:
e|------------------------------------------|
B|------------------------------------------|
G|------------------------------------------|
D|-7-7-7-7-8-7-7-7-7-5-7-7-7-7-8-7-7-5-7-8--|
A|-7-7-7-7-8-7-7-7-7-5-7-7-7-7-8-7-7-5-7-8--|
E|-5-5-5-5-6-5-5-5-5-3-5-5-5-5-6-5-5-3-5-6--|  x4



verse:
e|-------------------------------------------------------------|
B|-------------------------------------------------------------|
G|-------------------------------------------------------------|
D|-------------------------------------3-----------------------|
A|-2-2-2-2-2-2-2-2-2-2-2-2-2-2-2-2-2-2-3-2-2-2-2-2-2-2-2-2-2-2-|
E|-0-0-0-0-0-0-0-0-0-0-0-0-0-0-0-0-0-0-1-0-0-0-0-0-0-0-0-0-0-0-|  x1
 PM...................................   .....................
not exact amount (screw counting that!)



main:
e|------------------------------------------|
B|------------------------------------------|
G|------------------------------------------|
D|-7-7-7-7-8-7-7-7-7-5-7-7-7-7-8-7-7-5-7-8--|
A|-7-7-7-7-8-7-7-7-7-5-7-7-7-7-8-7-7-5-7-8--|
E|-5-5-5-5-6-5-5-5-5-3-5-5-5-5-6-5-5-3-5-6--|  x4



verse:
e|-------------------------------------------------------------|
B|-------------------------------------------------------------|
G|-------------------------------------------------------------|
D|-------------------------------------3-----------------------|
A|-2-2-2-2-2-2-2-2-2-2-2-2-2-2-2-2-2-2-3-2-2-2-2-2-2-2-2-2-2-2-|
E|-0-0-0-0-0-0-0-0-0-0-0-0-0-0-0-0-0-0-1-0-0-0-0-0-0-0-0-0-0-0-|  x1
 PM...................................   .....................



main:
e|------------------------------------------|
B|------------------------------------------|
G|------------------------------------------|
D|-7-7-7-7-8-7-7-7-7-5-7-7-7-7-8-7-7-5-7-8--|
A|-7-7-7-7-8-7-7-7-7-5-7-7-7-7-8-7-7-5-7-8--|
E|-5-5-5-5-6-5-5-5-5-3-5-5-5-5-6-5-5-3-5-6--|  x4
		let last note ring on last time thru



bridge:
e|------------------------------------------------|
B|------------------------------------------------|
G|------------------------------------------------|
D|---------10----------8----------10----------8-7-|
A|-2-2-2-2-10\-2-2-2-2-8\-2-2-2-2-10\-2-2-2-2-8-7-|
E|-0-0-0-0--8\-0-0-0-0-6\-0-0-0-0--8\-0-0-0-0-6-5-|  x4
 PM.......     .......   ........     .......

e|-----------------------|
B|-----------------------|
G|-----------------------|
D|-----------------------|
A|-2-2-2-2-2-2-2-8-7-5-7-|
E|-0-0-0-0-0-0-0-6-5-3-5-|  x4



main:
e|------------------------------------------|
B|------------------------------------------|
G|------------------------------------------|
D|-7-7-7-7-8-7-7-7-7-5-7-7-7-7-8-7-7-5-7-8--|
A|-7-7-7-7-8-7-7-7-7-5-7-7-7-7-8-7-7-5-7-8--|
E|-5-5-5-5-6-5-5-5-5-3-5-5-5-5-6-5-5-3-5-6--|  x2



outro:
e|----------|
B|----------|
G|----------|
D|-2-2--2-2-|
A|-2-2--2-2-|
E|-0-0--0-0-|  x1

e|---------------------------------------|
B|---------------------------------------|
G|---------------------------------------|
D|---------------------------------------|
A|---------5-----6-----7-------5---6---7-|
E|-0-0-0-0-3-0-0-4-0-0-5-0-0-0-3-0-4-0-5-|  x14

for the end here, he's playing this with slight variations on the rhythm, i think
also add in a few more open E's by tremolo picking

THE END! (hit these ones extra hard):
e|-------|
B|-------|
G|-------|
D|-2-2-2-|
A|-2-2-2-|
E|-0-0-0-|
            
Submit corrections

↑ Back to top | Tablatures and chords for acoustic guitar and electric guitar, ukulele, drums are parodies/interpretations of the original songs. You may use it for private study, scholarship, research or language learning purposes only