Home » S » Spice Girls »

Spice Girls - Spice Up Your Life Tabs

Artists:  A B C D E F G H I J K L M N O P Q R S T U V W X Y Z # 

Spice Up Your Life Tabs

(ver. 1) Click to play this song!
Spice Girls
Chorus:

play x2
G|--------------------------------------------------------------------------|
D|--------------------------------------------------------------------------|
A|-11--8------11-8-------10--7-----10--7------------------------------------|
E|--------8--------8------------8---------8---------------------------------|


G|--------------------------------------------------------------------------|
D|--------------------------------------------------------------------------|
A|-11--8------11-8-------10--7--------7--10---------------------------------|
E|--------8--------8------------8--8----------------------------------------|



Verse:
G|-------------------------------------------------------------------------|
D|---------11-10--------------10-8-----------------------------------------|
A|--8--11--------11--8--7-10--------10---7---------------------------------|
E|-------------------------------------------------------------------------|
            
Submit corrections

↑ Back to top | Tablatures and chords for acoustic guitar and electric guitar, ukulele, drums are parodies/interpretations of the original songs. You may use it for private study, scholarship, research or language learning purposes only