Home » S » Speaks Stephen »

Speaks Stephen - Passenger Seat Tabs

Artists:  A B C D E F G H I J K L M N O P Q R S T U V W X Y Z # 

Passenger Seat Tabs

(ver. 1) Click to play this song!
Speaks Stephen
Capo on 5th fret

Intro/Verse:

------------2-|-----|--2--|--0h3--|--0--|--0--0--0----------------------------
-----3----3-3-|--3--|--3--|--3----|--3--|--0--2--3----------------------------
----2-0h2---2-|--2--|--4--|--0----|--0--|--0--0--0----------------------------
-0----------0-|--4--|--4--|--0----|--2--|--2--2--2----------------------------
--------------|-----|--2--|--2----|--0--|--0--0--0----------------------------
--------------|-----|--2--|--3----|-----|-------------------------------------
                                                                              

--2-----|-----0-----|-2-|-----0h3---|-----0----|--0--0--0---------------------
--3-----|-----3-----|-3-|-----3-----|-----3----|--0--2--3---------------------
--2-----|-----2-----|-4-|-----0-----|-----0----|--0--0--0---------------------
--0-----|-----4-----|-4-|-----0-----|-----2----|--2--2--2---------------------
--------|-----------|-2-|-----2-----|-----0----|--0--0--0---------------------
--------|-----------|-2-|-----3-----|----------|------------------------------
 Bridge:                                                                      

----3----|----2----|----3----|----0----|----0--0--0---------------------------
----3----|----2----|----3----|----3----|----0--2--3---------------------------
----0----|----2----|----0----|----0----|----0--0--0---------------------------
----0----|----4----|----0----|----2----|----2--2--2---------------------------
----2----|----4----|----2----|----0----|----0--0--0---------------------------
----3----|----2----|----3----|---------|--------------------------------------
            
Submit corrections

↑ Back to top | Tablatures and chords for acoustic guitar and electric guitar, ukulele, drums are parodies/interpretations of the original songs. You may use it for private study, scholarship, research or language learning purposes only