Home » S » Sparklehorse »

Sparklehorse - Pig Bass

Artists:  A B C D E F G H I J K L M N O P Q R S T U V W X Y Z # 

Pig Bass

(ver. 1) Click to play this song!
Sparklehorse
 Rating:
4/5 (4 votes)
                -------------------------------------------------------------------------------
                                              Pig - Sparklehorse
-------------------------------------------------------------------------------

Tuning: EADG (Standard)

This is a fun song when when you've got nothing to really play. It's easy and sounds 
great! This is my first tab, so tell me how I can improve.

After the acoustic intro, the electric guitar comes in, playing the verse. The bass 
comes in about
halfway through the second verse. Basically, play the second half of the verse along 
with the guitar:

G|---------------------------------------------------------------------------|
D|---------------------------------------------------------------------------|
A|----------4----------------------------------------------------------------|
E|------33----5--------------------------------------------------------------|

Now play the full verse:

G|---------------------------------------------------------------------------|
D|---------------------------------------------------------------------------|
A|-2-2-2-2-2-2-2-2-x------4-------2-2-2-2-2-2-2-2-x-----4--------------------|
E|--------------------33-x---5--2--------------------33-x---5----------------|

Repeat that until the chorus, where you'll play:

G|---------------------------------------------------------------------------|
D|---------------------------------------------------------------------------|
A|---------------------------------------------------------------------------|
E|-2-2-2-2-2-2-2-2-2-2-2-2-2-2-2-2-5-5-5-5-5-5-5-5-5-5-5-5-5-5-5-5-----------|

And that's basically it! Like I said, it's just a fun song to play, very simple. 
Sometimes when
practicing, I just like to take a break and play something really simple, and this song 
is perfect for
that.

===============================================================================
            
Submit corrections

↑ Back to top | Tablatures and chords for acoustic guitar and electric guitar, ukulele, drums are parodies/interpretations of the original songs. You may use it for private study, scholarship, research or language learning purposes only