» » »

Spacehog - Never Coming Down Chords

Artists:  A B C D E F G H I J K L M N O P Q R S T U V W X Y Z # 

Never Coming Down Chords

(ver. 1) Click to play this song!
Spacehog
 Rating:
4/5 (4 votes)


 Never Coming Down lessons Tabs too difficult? Try these video lessons and learn fast
 
                Spacehog - "Never Coming Down (Part 1)"

Chorus and beginning I think

1|-------------------------------------------|
2|-------------------------------------------|
3|-------------7-7-x-x---------------6-6-x-x-|
4|-7-7-x-x-x-x-7-7-x-x-6-6-6-x-x-x-x-6-6-x-x-|
5|-7-7-x-x-x-x-5-5-x-x-6-6-6-x-x-x-x-4-4-x-x-|
6|-5-5-x-x-x-x---------4-4-4-x-x-x-x---------|

1|-------------------------------------------|
2|-------------------------------------------|
3|-------------5-5-x-x---------------4-4-x-x-|
4|-5-5-x-x-x-x-5-5-x-x-4-4-4-x-x-x-x-4-4-x-x-|
5|-5-5-x-x-x-x-3-3-x-x-4-4-4-x-x-x-x-2-2-x-x-|
6|-3-3-x-x-x-x---------2-2-2-x-x-x-x---------|

The verses have a weird line, I guess that would be =

what you call it; I can't think of anything else to
call what it is.  I'm not  really sure, but this is
kinda like what it goes like. If you figure it out,

I am on a friend's account now.) :)

1|---------------------------------|
2|---------------------------------|
3|---------------------------------|
4|---------------------------------|
5|-0-1-2-3-4-5-6-7-7-6-5-4-3-2-1-0-|
6|---------------------------------|

Then some other  stuff after that.  Like I said I
know that that  is not right.  If  you figure out
then right way  please send it to me at the above =

address.  Thanks.

Oh yeah, this can also be used for some of "Never
Coming Down (Part 2)".
            
Submit corrections



        Never Coming Down lessons Hard to play? Try these video lessons and learn fast Never Coming Down lessons
        
↑ Back to top | Tablatures and chords for acoustic guitar and electric guitar, ukulele, drums are parodies/interpretations of the original songs. You may use it for private study, scholarship, research or language learning purposes only