» » »

Soul Coughing - White Girl Bass

Artists:  A B C D E F G H I J K L M N O P Q R S T U V W X Y Z # 

White Girl Bass

(ver. 1) Click to play this song!
Soul Coughing
 Rating:
4.4/5 (14 votes)

 White Girl lessons Tabs too difficult? Try these video lessons and learn fast
 
                [Intro]

G|--------12-0h11----------12-12-0h11-|-------12-0h11--------12-12-0h11-|-------12-0h11-------12-12-0h11-----|
D|------------------------------------|---------------------------------|------------------------------------|
A|-0h3-------------0h3----------------|0h3-------------0h3--------------|-0h3-----------0h3------------------|
E|-----5----------------5-------------|----5---------------5------------|-----5-------------5----------------|

G|-------12-0h11--------12-12-0h11---|--------12-0h11--------12-12-0h11-|-------12-0h11--------12-12-0h11----|
D|-----------------------------------|----------------------------------|------------------------------------|
A|-0h3------------0h3----------------|-0h3-------------0h3--------------|-0h3------------0h3-----------------|
E|-----5--------------5--------------|-----5---------------5------------|-----5--------------5---------------|


[Verse]                                                                [Fill 1]

G|-------12-0h11--------12-12-0h11-|-------12-0h11--------12-12-0h11-|-------------|
D|---------------------------------|---------------------------------|-------------|
A|-0h3------------0h3--------------|-0h3------------0h3--------------|-3-----------|
E|-----5--------------5------------|-----5--------------5------------|---0-3-4-5---|

[Chorus]                                                                           [Fill 2]

G|----------------|------------------|----------------|----------------|REPEAT VERSE|------------------------|
D|----------------|------------------|----------------|----------------|FOLLOW INTO |------------------------|
A|-3-------3--6---|---3-------3--6---|-3------3--6----|-3-----3--6-----|FILL 2      |--17-17-/-5-5-----------|
E|-----5--------3-|-------5--------3-|------5-------3-|-----5-------3--|            |------------------------|

[Chorus 2]

G|-----------------|-----------------|-----------------|-----------------|-----------------------------------|
D|-----------------|-----------------|-----------------|-----------------|-----------------------------------|
A|-----------------|-----------------|-----------------|--=--------------|-----------------------------------|
E|-0--3--6-3----6\-|-0--3--6-3----6\-|-0--3--6-3----6\-|-0--3--6-3----6\-|-----------------------------------|


[Interlude]

G|----------------------------|----------------------------|----------------------------|--------------------|
D|----------------------------|----------------------------|----------------------------|--------------------|
A|----------------------------|----------------------------|----------------------------|---------3----------|
E|-19-19/20-20/-21-21-22\-4-4-|-19-19/20-20/-21-21-22\-4-4-|-19-19/-20-20/21-21-22\-4-4-|-4/--22\----0-3-4-5-|

            
Submit corrections


        White Girl lessons Hard to play? Try these video lessons and learn fast White Girl lessons
        
↑ Back to top | Tablatures and chords for acoustic guitar and electric guitar, ukulele, drums are parodies/interpretations of the original songs. You may use it for private study, scholarship, research or language learning purposes only