Home » S » Soul Coughing »

Soul Coughing - City Of Motors Bass

Artists:  A B C D E F G H I J K L M N O P Q R S T U V W X Y Z # 

City Of Motors Bass

(ver. 1) Click to play this song!
Soul Coughing
I have only tabbed the first part of the chorus 
because most of it follows and hides behind the 
drums so it should be easy to fake.  Not shown but
open E might be played in the chorus too.


*Note / - slide up,    \ - slide down



G|----------------------------------------------
D|----6---------6-------6-----8-----8---8---8/9-
A|--7---7-----7---7---7---7-----7-----7---7-----
E|9-------0-9-------9-------9-----9-------------

                                                                              
                                           
G|----------------------------------------------
D|8---8/9-----6----8-----8---8---8/9-8---8/9---- 
A|--7-------7---7----7-----7---7-------7-----7-4 
E|--------9------9-----9------------------------ 



chorus
G|-----------------------------------------:
D|-----------------------------------------:
A|4-4-4-4-----------4-4-4-4-4---4----------:
E|--------2-2-2-2-2-----------2---2-2-2-2-2:



G|----------------------------------------------------------------8---8/9----
D|----6-----8-----8---8---8/9-8---8/9-----8-----8-----8---8---8/9-8---8/9----
A|--7---7-----7-----7---7-------7-------7---7-----7-----7---7-------7-----7\4
E|9-------9-----9---------------------9-------9-----9------------------------

chorus

G|---------------------------------------------------------------------------
D|----6-----8-----8---8---8/9-8---8/9-----6-----8-----8---8---8/9-8---8/9----
A|--7---7-----7-----7---7-------7-------7---7-----7-----7---7-------7-----7-4
E|9-------9-----9---------------------9-------9-----9------------------------

chorus

G|-------
D|----6--
A|--7---7
E|9------
            
Submit corrections

↑ Back to top | Tablatures and chords for acoustic guitar and electric guitar, ukulele, drums are parodies/interpretations of the original songs. You may use it for private study, scholarship, research or language learning purposes only