» » »

Sonu Nigam - Mohabbat Kabhi Maine Ki To Nahin Thi Tabs

Artists:  A B C D E F G H I J K L M N O P Q R S T U V W X Y Z # 

Mohabbat Kabhi Maine Ki To Nahin Thi Tabs

(ver. 1) Click to play this song!
Sonu Nigam
 Rating:
4.4/5 (7 votes)

 Mohabbat Kabhi Maine Ki To Nahin Thi lessons Tabs too difficult? Try these video lessons and learn fast
 
                              Sonu Nigam – Mohabbat Kabhi Maine Ki To Nahi Thi
                                 From "Yaad"
By Sanjeev George and Thomas George


Some licks in between are not tabbed. If u want them then write in and we’ll post ‘em.


Intro
Love lines…..o jaane jaan ………blah blah..  Bbm  Ab  F#  Bbm

Keyboard Tabbed for guitar

e|------------------------------------------------------------------------------|
B|-------------------------------9---11------------------------------9----------|
G|--------10—8v-----10-8----8-10-----------8v-----10-8----8-10--11--------------|
D|-----8-----------------11----------------------------11----------------11v----|
A|------------------------------------------------------------------------------|
E|------------------------------------------------------------------------------|

e|-------------------------------------------------------------|
B|-------------------------------------------------------------|
G|------8-8/10-8-----------------------------------------------|
D|---11----------11---10---------------------------------------|
A|-------------------------11----------------------------------|
E|-------------------------------------------------------------|


Verse 1
    Bbm
Mohabbat kabhi maine ki to nahin thi
 
    Ab
Kisi ki nigaahaon se ki to nahin thi

   F#           F      Ab     Bbm
Magar ye achanak hua kya ho ho ooo

    Bbm           Ab    Bbm            Ab  Bbm
Tu saanson mein samaayee tu dhadkan ko churayi

   Bbm         Ab Bbm  F#  F
Kahin deewana ho jaon na tera
 
  Bbm            Ab    Bbm           Ab  Bbm
Tu saanson mein samaayee tu dhadkan ko churayi

   Bbm        Ab  Bbm  F#  F
Kahin deewana ho jaon na tera

Solo on keys : Bbm  Ab  F#  Ab  Bbm

Guitar solo :         Bb  Ab  F#  Ab  Bbm
                      Bb  Ab  F#  AB  Bbm

e|------------------------------------------------------------------------------|
B|-------------------------------9---11------------------------------9----------|
G|--------10—8v-----10-8----8-10-----------8v-----10-8----8-10--11--------------|
D|-----8-----------------11----------------------------11----------------11v----|
A|------------------------------------------------------------------------------|
E|------------------------------------------------------------------------------|

e|-------------------------------------------------------------|
B|-------------------------------------------------------------|
G|------8-8/10-8-----------------------------------------------|
D|---11----------11---10---------------------------------------|
A|-------------------------11----------------------------------|
E|-------------------------------------------------------------|

e|------------------------------------------------------------------------------|
B|-------------------------------9---11------------------------------9----------|
G|--------10—8v-----10-8----8-10-----------8v-----10-8----8-10--11--------------|
D|-----8-----------------11----------------------------11----------------11v----|
A|------------------------------------------------------------------------------|
E|------------------------------------------------------------------------------|

e|-------------------------------------------------------------------------|
B|-------------------------------------------------------------------------|
G|------8-8/10-8-----------------------------------6-8/10---8—5h6p5--------|
D|---11----------11---10------10h11p10---------3/6------------------8------|
A|-------------------------11----------13v---------------------------------|
E|-------------------------------------------------------------------------|

e|---------------------------------|
B|---------------------------------|
G|---------6-----------------------|
D|-----6h8---8p6---6---------------|
A|---------------8---8-6-4v--------|
E|---------------------------------|



Stanza 1

   C#           Ebm
Pehli nazar ka pehla nasha
   F#                 Bbm
Dil mein utarta jaaye sanam
  C#             Ebm
Sharmake mujhse dil na tera
  F#              Bbm
Jadoo sa karta jaaye sanam
 C#              C#
Ye bekaraari aisi khumari
    Ebm          Ab     Bbm
Pehli kabhi tho mujhpe na thi

Verse 2 (Same chords as verse 1)
Kabhi dil pe yun bekhudi to nahi thi
Kisi se mujhe aashiqi to nahin thi 
magar ye achanak hua o ho ho ho

Keys solo 2 : Bb  Ab  F#  Ab  Bbm
              Bb  Ab  F#  AB  Bbm
Guitar solo  again

Stanza 2(Same chords as stanza 1)
Kitne hi chehre dejkhe magar
Maine chunaa hai bus ek tujhe
Hara pal ho meri baahon mein tu
Mil jaye aisi kismat mujhe 

Dil ye pukera tere nazara
Karta hi jaon o jaane jaan

Verse 3 (Same chords)
Mujhe pehli itni khusshi to nahin thi
Yun mehki hui zindagi to nahin thi
Magar ye achanak hua o o 

Tu sanson mein samaayee tu dhadkanon ko churayi
Kahin deewana ho jaon na tera

Verse 1 again

Guitar solo again

Please rate the tab. thanks
            
Submit corrections


        Mohabbat Kabhi Maine Ki To Nahin Thi lessons Hard to play? Try these video lessons and learn fast Mohabbat Kabhi Maine Ki To Nahin Thi lessons
        
↑ Back to top | Tablatures and chords for acoustic guitar and electric guitar, ukulele, drums are parodies/interpretations of the original songs. You may use it for private study, scholarship, research or language learning purposes only