Home » S » Sonicflood »

Sonicflood - Heart Of Worship Tabs

Artists:  A B C D E F G H I J K L M N O P Q R S T U V W X Y Z # 

Heart Of Worship Tabs

(ver. 1) Click to play this song!
Sonicflood
Heart of Worship
Copyright: c1999 Kingsway's Thankyou Music/admin. by EMI

This is an excellent song which has become quite popular over the last
few years ever since Matt Redman and Martin Smith of Delirious recorded
it for the first time. This version by Sonicflood features a very simple
arrangement of acoustic guitar and piano. This is not a note-for-note
perfect tab just because of a few times when you can't hear the guitar,
so I made my best guess for those times based on the very obvious patterns
and tabbed it out note for note wherever I could (no help from the tab
book here!). The acoustic part also sounds very bright, so a little
chorus might be nice.

Verse:
--5-----------5-----------0-------|--5-------------------------------|
--3-------3-----------3-----------|--5-----------2-----------2-------|
------2-----------2-----------2---|----------2-----------2-------2---|
----------------------------------|----------------------------------|
----------------------------------|------0-----------0---------------|
----------------------------------|----------------------------------|
1	&   2   &   3   &   4   &      1   &   2   &   3   &   4   &   
D					    A

--3-----------3---2---------------|----------------------------------|
----------3---------------3-------|--3-----------3---2---------------|
------0---------------0-------0---|----------0---------------0-------|
--2-------------------------------|------2---------------2-----------|
----------------------------------|--0-------------------------------|
----------------------------------|----------------------------------|
1	&   2   &   3   &   4   &      1   &   2   &   3   &   4   &   
Em					    A
**repeat



Prechorus:
----------------------------------|----------------------------------|
----------3---------------3-------|--2-----------2h3p2---------------|
--0-----------0---2-----------2---|----------2---------------2-------|
--2---------------0---------------|------2---------------2-------2---|
------2---------------------------|--0-------------------------------|
----------------------2-----------|----------------------------------|
1	&   2   &   3   &   4   &      1   &   2   &   3   &   4   &   
Em7		     D/F#		    A

----------------------------------|----------------------------------|
----------2---------------3-------|--2-----------2h3p2-------0-------|
--0-----------0---2-----------2---|----------2-----------2-----2-----|
--2---------------0---------------|------2-----------------2-----2---|
------2---------------------------|--0-----------------------------0-|
----------------------2-----------|----------------------------------|
1	&   2   &   3   &   4   &      1   &   2   &   3   &   4   &   
Em7        	    D/F#		     A

--------------------------0-------|--0-------------------------------|
----------3-----------------------|--------------2h3p2---------------|
--0-----------0---2-----------2---|----------2---------------2-------|
--2---------------0---------------|------2---------------2-------2---|
------2---------------------------|--0-------------------------------|
----------------------2-----------|----------------------------------|
1	&   2   &   3   &   4   &      1   &   2   &   3   &   4   &  
Em7		    D/F#		     A

----------3-------2---------------|----------------------------------|
--------------3-------------------|--2-----------3---2---------------|
--0-----------------------2-------|----------2-------0---------------|
----------------------0-------0---|------2-----------2---------------|
------2---------------------------|--0---------------0---------------|
--0---------------2---------------|----------------------------------|
1	&   2   &   3   &   4   &      1   &   2   &   3   &   4   &   
Em7		     D/F#		     A



Chorus:
----------0h2---------------------|----------------------0-----------|
----------------------------------|--------------0---------------0---|
------2---------------------------|----------2-------2-------2-------|
--0-------------------------------|------2---------------------------|
----------------------------------|--4-------------------------------|
----------------------------------|----------------------------------|
1	&   2   &   3   &   4   &      1   &   2   &   3   &   4   &   
D					    A/C#

--------------3-------------------|----------------------------------|
----------0-------------------0---|----------1---------------2h3p2---|
------0-----------0-------0-------|------0-----------------2---------|
--2-------------------2-----------|--------------0h2-----2-----------|
----------------------------------|------------------0---------------|
----------------------------------|--3-------------------------------|
1	&   2   &   3   &   4   &      1   &   2   &   3   &   4   &   
Em					     G			 A

--0h2-----------------------------|--------------0-------------------|
----------------------------------|----------------------0-------0---|
--------------2-------------------|----------2-----------------------|
----------0-----------------------|------2-------------------2-------|
------0---------------------------|--4-------------------------------|
----------------------------------|----------------------------------|
1	&   2   &   3   &   4   &      1   &   2   &   3   &   4   &   
D					    A/C#

----------3-----------------------|----------------------------------|
------------------0-----------0---|----------3-------------------2h3-|
------0-------0-----------0-------|------0-------4-----------2-------|
--2-------------------2-----------|----------------------2-----------|
----------------------------------|------------------0---------------|
----------------------------------|--3-------------------------------|
1	&   2   &   3   &   4   &      1   &   2   &   3   &   4   &    
Em7					     G  		 A


Transition:
There's a quick little transition in here that is very similar to
the Pre-chorus tabs.



--------------0---2---------------|--3-----------------------0-------|
----------3-------3---------------|----------3-----------------------|
------2-----------2---------------|----------------------2-------2---|
--0---------------0---------------|----------------------------------|
----------------------------------|------2-------2-------------------|
----------------------------------|--0---------------2---------------|
1	&   2   &   3   &   4   &      1   &   2   &   3   &   4   & 
D					    Em7             D/F#
 
----------------------------------|--3-----------3---2---------------|
--------------2h3p2---------------|----------3-----------------------|
----------2---------------2-------|----------------------------------|
------2---------------2-------2---|--------------------------0-------|
--0-------------------------------|------2---------------2-------2---|
----------------------------------|--0-------------------------------|
1	&   2   &   3   &   4   &      1   &   2   &   3   &   4   &    
A					    Em7		D/F#

----------------------------------|
--2-----------3---2---------------|
----------------------------------|
------------2---------------------|
--0---0---0-------0---------------|
----------------------------------|
1	&   2   &   3   &   4   &  
A


There are a few differences between the first verse, prechorus, and
chorus and the second verse, prechorus, and chorus, but they don't
make a huge difference. If you want, use this tab as a starting point
and figure it out on your own.


Outro:

--------------------------3p2p0---|--------------------------3p2p0---|
----------3-------------3---------|----------3-------------3---------|
------2-------3-------2-----------|------2-------3-------2-----------|
--0---------------0---------------|--0---------------0---------------|
----------------------------------|----------------------------------|
----------------------------------|----------------------------------|
1	&   2   &   3   &   4   &      1   &   2   &   3   &   4   &    

--------------------------3p2p0---|----------------------------------|
----------3-------------3---------|----------3-----------------------|
------2-------2-------2-----------|------2-------2--------see-fill-A-|
--0---------------0---------------|--0---------------0------below----|
----------------------------------|----------------------------------|
----------------------------------|----------------------------------|
1	&   2   &   3   &   4   &      1   &   2   &   3   &   4   &   

--------------------------3p2p0---|--------------------------3p2p0---|
----------3-------------3---------|----------3-----------3-----------|
------2-------3-------2-----------|------2-------2---2-2-------------|
--0---------------0---------------|--0-------------------------------|
----------------------------------|----------------------------------|
----------------------------------|----------------------------------|
1	&   2   &   3   &   4   &      1   &   2   &   3   &   4   & 





--------10----1010----1010----1010|------1010----8-8-----8-8-----8-8-----8-8-|
------7---7/8-----8-------8-------|--7/8-----5/6-----6-------6-------6-------|
----------------------------------|------------------------------------------|
--0-------------------------------|------------------------------------------|
----------------------------------|------------------------------------------|
----------------------------------|------------------------------------------|
1	&   2   &   3   &   4   &      1   &   2   &   3   &   4   &   5   &   

----------------------0---0-------|---2------------------------------|
--------------3-----------2-------|---3------------------------------|
--------------------------0-------|---2------------------------------|
------2---/4------5-------2-------|---0------------------------------|
--0-----------------------0-------|---0------------------------------|
----------------------------------|----------------------------------|
1	&   2   &   3   &   4   &      1   &   2   &   3   &   4   &    

That's about it. Refer to the chord sheet for lyrics. There's also a tab
book available at most Christian bookstores which has the tabs to all of
the Sonicflood songs. Have fun playing!


                         -TRANSFERED BY ASA GASTON-
            
Submit corrections

↑ Back to top | Tablatures and chords for acoustic guitar and electric guitar, ukulele, drums are parodies/interpretations of the original songs. You may use it for private study, scholarship, research or language learning purposes only