Home » S » Something For Kate »

Something For Kate - Working Against Me Tabs

Artists:  A B C D E F G H I J K L M N O P Q R S T U V W X Y Z # 

Working Against Me Tabs

(ver. 1) Click to play this song!
Something For Kate
Something For Kate - Working Against Me
Album - Elsewhere For 8 Minutes (1997)

Tuning: Standard

Intro 

E|-x-x-x-x-x-x--x-x----------------------------------------------|
B|-x-x-x-x-x-x--0-0----------------------------------------------|
G|-x-x-x-x-x-x--2-2--------------------X 3-----------------------|
D|-x-x-x-x-x-x--2-2----------------------------------------------|
A|-x-x-x-x-x-x--x-x----------------------------------------------|
E|-x-x-x-x-x-x--x-x----------------------------------------------|
                A5/E 

E|--x-x-x--x-x-x--x-x-x--x-x-x-x-x-x-----------------------------|
B|--2-2-2--2-2-2--3-3-3--x-x-x-x-x-x-----------------------------|
G|--2-2-2--2-2-2--2-2-2--8-8-8-8-9-8-----------------------------|
D|--2-2-2--2-2-2--x-x-x--9-9-9-9-9-9----X 1----------------------|
A|--x-x-x--4-4-4--x-x-x--9-9-9-9-9-9-----------------------------|
E|--x-x-x--x-x-x--x-x-x--7-7-7-7-7-7-----------------------------|
      A      B5    D5/A      Bsus4


 Intro & Verse
   
E|--x-x-x-x---x-x-x-x---x-x-x-x---x-x----------------------------|
B|--x-x-x-x---x-x-x-x---x-x-x-x---x-x----------------------------|
G|--6-6-6-6---4-4-4-4---6-6-6-6---4-4---X 3----------------------|
D|--7-7-7-7---4-4-4-4---7-7-7-7---4-4----------------------------|
A|--4-4-4-4---2-2-2-2---4-4-4-4---2-2----------------------------|
E|--x-x-x-x---x-x-x-x---x-x-x-x---x-x----------------------------|
     Ano5/C#     B5      Ano5/C#   B5 
    
E|--x-x-x--x-x-x--x-x-x--x-x-x-x-x-x-----------------------------|
B|--2-2-2--2-2-2--3-3-3--x-x-x-x-x-x-----------------------------|
G|--2-2-2--2-2-2--2-2-2--8-8-8-8-9-8-----------------------------|
D|--2-2-2--2-2-2--x-x-x--9-9-9-9-9-9----X 1----------------------|
A|--x-x-x--4-4-4--x-x-x--9-9-9-9-9-9-----------------------------|
E|--x-x-x--x-x-x--x-x-x--7-7-7-7-7-7-----------------------------|
      A      B5    D5/A      Bsus4

I took my time,                                   I've got it all planned
And whatever else i could find                    I'm gonna mark out my land
I didn't care at                                  I've drawn some lines in the sand

  Pre-Chorus

E|--x-x-x-x----x---x-x-------------------------------------------|
B|--x-x-x-x----2---2-2-------------------------------------------|
G|--2-2-2-2----2---2-2-------------------------------------------|
D|--4-4-4-4----2---2-2---7-/-9---9-\-7---X-3---------------------|
A|--4-4-4-4----x---x-x---7-/-9---9-\-7---------------------------|
E|--2-2-2-2----x---x-x---5-/-7---7-\-5---------------------------|
      F#m        A          A/5  B/5

E|--x-x-x-x----x-x-x-x->-----------------------------------------|
B|--x-x-x-x----7-7-7-7->-----------------------------------------|
G|--2-2-2-2----8-8-8-8->-----------------------------------------|
D|--4-4-4-4----9-9-9-9->-----------------------------------------|
A|--4-4-4-4----9-9-9-9->-----------------------------------------|
E|--2-2-2-2----7-7-7-7->-----------------------------------------|
       F#m        B

I thought time would change things
I thought that things would change
I thought you thought i think you thought
But everything is the same

  Verse 2
I try to stay between your world and mine
But that's a crooked line
   
  Pre-Chorus 2

And i don't wanna look at you
And i don't wanna have to think
I'll blame the captain and the crew
Cos they said it wouldn't sink….

  Chorus

E|--xxxxxxx---x-x---x-x-x-x--------------------------------------|
B|--xxxxxxx---x-x---x-x-x-x--------------------------------------|
G|--6666666---2-2---4-4-4-4--------------------------------------|
D|--7777777---4-4---6-6-6-6----X 4- Sustain last chord-----------|
A|--7777777---4-4---6-6-6-6--------------------------------------|
E|--5555555---2-2---4-4-4-4--------------------------------------|
       A       F#m     G#m

They said it wouldn't sink
My legs won't hold me up
Your heart is pounding in my head
My mouth seems to be working against me


   (Lead played double time beneath chorus)
E|---------------------------------------------------------------|
B|---------------------------------------------------------------|
G|---14-11----------11--14---------------------------------------|
D|---------14-12-14----------------------------------------------|
A|---------------------------------------------------------------|
E|---------------------------------------------------------------|

  Bridge

E|--x-x-x-x---x-x-x-x---x-x-x-x---x-x-x-x------------------------|
B|--10101010--7-7-7-7---7-7-7-7---x-x-x-x------------------------|
G|--9-9-9-9---8-8-8-8---7-7-7-7---2-2-2-2------------------------|
D|--7-7-7-7---9-9-9-9---7-7-7-7---2-2-2-2-(HOLD)-X 3-------------|
A|--0-0-0-0---x-x-x-x---x-x-x-x---x-x-x-x------------------------|
E|--x-x-x-x---x-x-x-x---x-x-x-x---x-x-x-x------------------------|
       A5        B         D/A     A5/E


E|--x-x-x-x---x-x-x-x---x-x-x-x---x-x-x-x-x-x--------------------|
B|--10101010--7-7-7-7---7-7-7-7---x-x-x-x-x-x--------------------|
G|--9-9-9-9---8-8-8-8---7-7-7-7---8-8-8-8-9-8--------------------|
D|--7-7-7-7---9-9-9-9---7-7-7-7---9-9-9-9-9-9--X 1---------------|
A|--0-0-0-0---x-x-x-x---x-x-x-x---9-9-9-9-9-9--------------------|
E|--x-x-x-x---x-x-x-x---x-x-x-x---7-7-7-7-7-7--------------------|
       A5        B         D/A       Bsus4

  Lead played double time (up & down)

E|---------------------------------------------------------------|
B|---------------------------12----14----15----17----------------|
G|---14-11----------11-14-11----14----14----14----14-------------|
D|---------14-12-14----------------------------------------------|
A|---------------------------------------------------------------|
E|---------------------------------------------------------------|
   
  Bridge 2

I don't wanna look at you
And i don't wanna have to think
I'll blame the captain and the crew
Cos they said it wouldn't sink
  
  Chorus 2

They said it wouldn't sink
My legs won't hold me up
Your heart is pounding in my head
My mouth seems to be
My legs won't hold me up
Your heart is pounding in my head
My mouth seems to be working against me


Intro
Verse x2
Verse (with lyrics)
Pre-Chorus
Verse
Verse  (with lyrics)
Chorus 
Bridge
Pre-chorus
Chrorus x2






Tablature Notation

/ - slide up
\ - slide down
x - play 'note' with heavy muting
            
Submit corrections

↑ Back to top | Tablatures and chords for acoustic guitar and electric guitar, ukulele, drums are parodies/interpretations of the original songs. You may use it for private study, scholarship, research or language learning purposes only