Home » S » Soko »

Soko - How Are You Tabs

Artists:  A B C D E F G H I J K L M N O P Q R S T U V W X Y Z # 

How Are You Tabs

(ver. 1) Click to play this song!
Soko
intro:
1. e|-----3--3-----------------|
   B|-----0--0-----1--0--------|
   G|--0--------0--------------|
   D|--------------------------|
   A|--------------------------|
   E|--------------------------| x4

2. e|-----3--x-----------------|
   B|-----0--0-----1--0--------|
   G|--0--------0--------------|
   D|--------------------------|
   A|--------------------------|
   E|--------------------------| (occasionally switch between a dead note on e string and open e 
                                  throughout the whole song)

"How are you?
Isn't it the hardest question
To answer to when the only thing
you wanna say is BAD 
Isn't it the hardest question to answer to
When the only thing you wanna do is cry

how are you?"


(play D chord position for the next part)
  
e|-----2--2-----2--2----------|
B|-----3--3-----3--3----------|
G|--2--------2----------------|
D|----------------------------|
A|----------------------------|
E|----------------------------|
"oh its so hard
to look at you and smile
and just reply..."

e|--3--2--------3--0--------------------|
B|--------0-----0--0-----1--0-----------|
G|-----------0--------0-----------------|
D|--------------------------------------|
A|--------------------------------------|
E|--------------------------------------|
   "I   am fine"

e|-----3--0-----------------|
B|-----0--0-----1--0--------|
G|--0--------0--------------|
D|--------------------------|
A|--------------------------|
E|--------------------------|
           "Coz you know I'm not
You know I'm not
Coz my eyes don't lie
How are you?

How are you?
Isn't it the hardest question
To answer to when the only thing
you wanna say is BAD 
Isn't it the hardest question to answer to
When the only thing you wanna do is cry
cry

how are you?"            
Submit corrections

↑ Back to top | Tablatures and chords for acoustic guitar and electric guitar, ukulele, drums are parodies/interpretations of the original songs. You may use it for private study, scholarship, research or language learning purposes only