Home » S » Soft Cell »

Soft Cell - Where Did Our Love Go Tabs

Artists:  A B C D E F G H I J K L M N O P Q R S T U V W X Y Z # 

Where Did Our Love Go Tabs

(Version #1)
Soft Cell
-------------------------------------------------------------------------------------------------
-------------------------------------------------------------------------------------------------

This is my first attempt at tabbing so if it sucks, 
my bad, but i believe it to sound correct.


Tuning:Standard

All chords played should be played as bar chords.


Guitar 1: (Repeat Through Whole Song)
    G  G                    Dm Dm                 C  C                  Dm          
e|-------------------------------------------------------------------------|
B|-------------------------------------------------------------------------|
G|-------------------------------------------------------------------------|
D|---------------------0-2--0--0--0----0--0--0--------------------------0--|
A|-------------------2---------------2---------4--3--3--3--0-3--3--3-3-----|
E|--3--3--3--0-3--3--------------------------------------------------------|
  Dm        C  C  C        
e|--------------------- |
B|---------------------*|
G|--------------------- |
D|0--0--0-------------- |
A|--------4-3--3--3--3-*|
E|--------------------- |

Guitar 2: start playing at eighth repeat for guitar 1
Play till end of song

e|15--15--15--12-15--12-15-12-15-12-15-12- |
B|----------------------------------------*|
G|---------------------------------------- |
D|---------------------------------------- |
A|----------------------------------------*|
E|---------------------------------------- |


Guitar 3: play chords over "guitar 1". play only where they appear. 


============================================================================
            
Submit corrections

↑ Back to top | Tablatures and chords for acoustic guitar and electric guitar, ukulele, drums are parodies/interpretations of the original songs. You may use it for private study, scholarship, research or language learning purposes only