» » »

Smash Mouth - Beer Goggles Bass

Artists:  A B C D E F G H I J K L M N O P Q R S T U V W X Y Z # 

Beer Goggles Bass

(ver. 1) Click to play this song!
Smash Mouth
 Rating:
4.4/5 (8 votes)

 Beer Goggles lessons Tabs too difficult? Try these video lessons and learn fast
 
                [Intro]

Gb|-----------------|-----------------|-----------------|-----------------|
Db|-----------------|-----------------|-----------------|-----------------|
Ab|-----------------|-----------------|-----------------|-----------------|
Eb|-----------------|-----------------|-----------------|-----------------|
    1 & 2 & 3 & 4 &   1 & 2 & 3 & 4 &   1 & 2 & 3 & 4 &   1 & 2 & 3 & 4 &

Gb|-----------------|-------2-2-2-----|-----------------|-----------------|
Db|-------1-1-1-2-2-|-4-4-4-------4-4-|-2-2-2-2-2-2-2-2-|-4-4-4-4-4-4-4-4-|
Ab|-2-2-2-----------|-----------------|-----------------|-----------------|
Eb|-----------------|-----------------|-----------------|-----------------|
    1 & 2 & 3 & 4 &   1 & 2 & 3 & 4 &   1 & 2 & 3 & 4 &   1 & 2 & 3 & 4 &

[Verse 1]

   "I don't love..."
Gb|-----------------|-----------------|-----------------|-----------------|
Db|-----------------|-----------------|-----------------|-----------------|
Ab|-2-2-2-2-2-2-2---|-----------------|-2-2-2-2-2-2-2---|-----------------|
Eb|---------------4-|---4-4-0---0-0-0-|---------------4-|---4-4-0---0-0-0-|
    1 & 2 & 3 & 4 &   1 & 2 & 3 & 4 &   1 & 2 & 3 & 4 &   1 & 2 & 3 & 4 &

Gb|-----------------|-----------------|-----------------|-----------------|
Db|---------------5-|---5-5-4---4-4-4-|-----------------|-2-2-2-----------|
Ab|-2---2-2-2-2-2---|-----------------|-2---2---2-2-2---|-------0---0-0-0-|
Eb|-----------------|-----------------|-----------------|-----------------|
    1 & 2 & 3 & 4 &   1 & 2 & 3 & 4 &   1 & 2 & 3 & 4 &   1 & 2 & 3 & 4 &

   "Here's my number..."
Gb|-----------------|-----------------|-----------------|-----------------|
Db|-----------------|-----------------|-----------------|-----------------|
Ab|-2-2-2-2-2-2-2---|-----------------|-2-2-2-2-2-2-2---|-----------------|
Eb|---------------4-|---4-4-0---0-0-0-|---------------4-|---4-4-0---0-0-0-|
    1 & 2 & 3 & 4 &   1 & 2 & 3 & 4 &   1 & 2 & 3 & 4 &   1 & 2 & 3 & 4 &

Gb|-----------------|-----------------|-----------------|
Db|---------------5-|---5-5-4---4-4-4-|-----------------|
Ab|-2---2-2-2-2-2---|-----------------|-2---2-----------|
Eb|-----------------|-----------------|-----------------|
    1 & 2 & 3 & 4 &   1 & 2 & 3 & 4 &   1 & 2 & 3 & 4 &

[Pre-Chorus]

   "Why don't you call..."
Gb|-----------------|-----------------|-----------------|-----------------|
Db|-5---5---5-4-2---|-7---7---7-7-7---|---------------6-|-6-6-------------|
Ab|-----------------|-----------------|-------------6---|-----6-----------|
Eb|-----------------|-----------------|-4---4---7-7-----|---------7---6---|
    1 & 2 & 3 & 4 &   1 & 2 & 3 & 4 &   1 & 2 & 3 & 4 &   1 & 2 & 3 & 4 &

   "Kill me for..."
Gb|-----------------|-----------------|
Db|-----------------|-----------------|
Ab|-----------------|-7-7-7-7-7-7-7-7-|
Eb|-3---3---3---3---|-----------------|
    1 & 2 & 3 & 4 &   1 & 2 & 3 & 4 & 

[Chorus]

   "I want..."
Gb|-----------------|-----------------|-----------------|-----------------|
Db|---------------1-|---1-1---1-1-1-1-|-2---2---2-2-2-2-|-2---2---2-2-2-4-|
Ab|-2-2-2-2-2-2-2---|-----------------|-----------------|-----------------|
Eb|-----------------|-----------------|-----------------|-----------------|
    1 & 2 & 3 & 4 &   1 & 2 & 3 & 4 &   1 & 2 & 3 & 4 &   1 & 2 & 3 & 4 &

Gb|-----------------|-----------------|-----------------|-----------------|
Db|---------------1-|---1-1---1-1-1-1-|-2---2---2-2-2-/-|-5-5-5---7---7---|
Ab|-2-2-2-2-2-2-2---|-----------------|-----------------|-----------------|
Eb|-----------------|-----------------|-----------------|-----------------|
    1 & 2 & 3 & 4 &   1 & 2 & 3 & 4 &   1 & 2 & 3 & 4 &   1 & 2 & 3 & 4 &

[Verse 2]

   "You spend your..."
Gb|-----------------|-----------------|-----------------|-----------------|
Db|-----------------|-----------------|-----------------|-----------------|
Ab|-2-2-2-2-2-2-2---|-----------------|-2-2-2-2-2-2-2---|-----------------|
Eb|---------------4-|---4-4-0---0-0-0-|---------------4-|---4-4-0---0-0-0-|
    1 & 2 & 3 & 4 &   1 & 2 & 3 & 4 &   1 & 2 & 3 & 4 &   1 & 2 & 3 & 4 &

Gb|-----------------|-----------------|-----------------|-----------------|
Db|---------------5-|---5-5-4---4-4-4-|-----------------|-2-2-2-----------|
Ab|-2---2-2-2-2-2---|-----------------|-2---2---2-2-2---|-------0---0-0-0-|
Eb|-----------------|-----------------|-----------------|-----------------|
    1 & 2 & 3 & 4 &   1 & 2 & 3 & 4 &   1 & 2 & 3 & 4 &   1 & 2 & 3 & 4 &

   "Pull the goggles..."
Gb|-----------------|-----------------|-----------------|-----------------|
Db|-----------------|-----------------|-----------------|-----------------|
Ab|-2-2-2-2-2-2-2---|-----------------|-2-2-2-2-2-2-2---|-----------------|
Eb|---------------4-|---4-4-0---0-0-0-|---------------4-|---4-4-0---0-0-0-|
    1 & 2 & 3 & 4 &   1 & 2 & 3 & 4 &   1 & 2 & 3 & 4 &   1 & 2 & 3 & 4 &

Gb|-----------------|-----------------|-----------------|
Db|---------------5-|---5-5-4---4-4-4-|-----------------|
Ab|-2---2-2-2-2-2---|-----------------|-2---2-----------|
Eb|-----------------|-----------------|-----------------|
    1 & 2 & 3 & 4 &   1 & 2 & 3 & 4 &   1 & 2 & 3 & 4 &

[Pre-Chorus]

   "Why don't you call..."
Gb|-----------------|-----------------|-----------------|-----------------|
Db|-5---5---5-4-2---|-7---7---7-7-7---|-6---6---6-------|-----------------|
Ab|-----------------|-----------------|-----------3-4-5-|-6---------------|
Eb|-----------------|-----------------|-----------------|---4---4---4-4-4-|
    1 & 2 & 3 & 4 &   1 & 2 & 3 & 4 &   1 & 2 & 3 & 4 &   1 & 2 & 3 & 4 &

   "Kill me for..."
Gb|-----------------|-----------------|
Db|-----------------|-----------------|
Ab|-----------------|-7-7-7-7-7-7-7-7-|
Eb|-3---3---3---3---|-----------------|
    1 & 2 & 3 & 4 &   1 & 2 & 3 & 4 & 

[Chorus]

   "I want..."
Gb|-----------------|-----------------|-----------------|-----------------|
Db|---------------1-|---1-1---1-1-1-1-|-2---2---2-2-2-2-|-2---2---2-2-2-4-|
Ab|-2-2-2-2-2-2-2---|-----------------|-----------------|-----------------|
Eb|-----------------|-----------------|-----------------|-----------------|
    1 & 2 & 3 & 4 &   1 & 2 & 3 & 4 &   1 & 2 & 3 & 4 &   1 & 2 & 3 & 4 &

Gb|-----------------|-----------------|-----------------|-----------------|
Db|---------------1-|---1-1---1-1-1-1-|-2---2---2-2-2-/-|-5-5-5---7-7-7---|
Ab|-2-2-2-2-2-2-2---|-----------------|-----------------|-----------------|
Eb|-----------------|-----------------|-----------------|-----------------|
    1 & 2 & 3 & 4 &   1 & 2 & 3 & 4 &   1 & 2 & 3 & 4 &   1 & 2 & 3 & 4 &

   "I want..."
Gb|-----------------|-----------------|-----------------|-----------------|
Db|---------------1-|---1-1---1-1-1-1-|-2---2---2-2-2-2-|-2---2---2-2-2-4-|
Ab|-2-2-2-2-2-2-2---|-----------------|-----------------|-----------------|
Eb|-----------------|-----------------|-----------------|-----------------|
    1 & 2 & 3 & 4 &   1 & 2 & 3 & 4 &   1 & 2 & 3 & 4 &   1 & 2 & 3 & 4 &

Gb|-----------------|-----------------|-----------------|-----------------|
Db|---------------1-|---1-1---1-1-1-1-|-2---2---2-2-2-/-|-5-5-5---7---7---|
Ab|-2-2-2-2-2-2-2---|-----------------|-----------------|-----------------|
Eb|-----------------|-----------------|-----------------|-----------------|
    1 & 2 & 3 & 4 &   1 & 2 & 3 & 4 &   1 & 2 & 3 & 4 &   1 & 2 & 3 & 4 &

[Instrumental]

Gb|-----------------|-----------------|-----------------|-----------------|
Db|-----------------|-----------------|-----------------|-----------------|
Ab|-2---------------|-----------------|-----------------|-----------------|
Eb|-----------------|-----------------|-----------------|-----------------|
    1 & 2 & 3 & 4 &   1 & 2 & 3 & 4 &   1 & 2 & 3 & 4 &   1 & 2 & 3 & 4 &

Gb|-----------------|-------2-2-2-----|-----------------|-----------------|
Db|-------1-1-1-2-2-|-4-4-4-------4-4-|-2-2-2-2-2-2-2-2-|-4-4-4-4-4-4-4-4-|
Ab|-2-2-2-----------|-----------------|-----------------|-----------------|
Eb|-----------------|-----------------|-----------------|-----------------|
    1 & 2 & 3 & 4 &   1 & 2 & 3 & 4 &   1 & 2 & 3 & 4 &   1 & 2 & 3 & 4 &

[Chorus]

   "I want..."
Gb|-----------------|-----------------|-----------------|-----------------|
Db|---------------1-|---1-1---1-1-1-1-|-2---2---2-2-2-4-|---4-4---4-4-4-4-|
Ab|-2-2-2-2-2-2-2---|-----------------|-----------------|-----------------|
Eb|-----------------|-----------------|-----------------|-----------------|
    1 & 2 & 3 & 4 &   1 & 2 & 3 & 4 &   1 & 2 & 3 & 4 &   1 & 2 & 3 & 4 &

Gb|-----------------|-----------------|-----------------|-----------------|
Db|---------------1-|---1-1---1-1-1-1-|-2---2---2-2-2-/-|-5-5-5---7-7-7---|
Ab|-2-2-2-2-2-2-2---|-----------------|-----------------|-----------------|
Eb|-----------------|-----------------|-----------------|-----------------|
    1 & 2 & 3 & 4 &   1 & 2 & 3 & 4 &   1 & 2 & 3 & 4 &   1 & 2 & 3 & 4 &

   "I want..."
Gb|-----------------|-----------------|-----------------|-----------------|
Db|---------------1-|---1-1---1-1-1-1-|-2---2---2-2-2-4-|---4-4---4-4-2-1-|
Ab|-2-2-2-2-2-2-2---|-----------------|-----------------|-----------------|
Eb|-----------------|-----------------|-----------------|-----------------|
    1 & 2 & 3 & 4 &   1 & 2 & 3 & 4 &   1 & 2 & 3 & 4 &   1 & 2 & 3 & 4 &

   "Fat ones..."
Gb|-----------------|-----------------|-----------------|-----------------|
Db|-----------------|-1---1---1-1-1-1-|-2---2---2-2-2---|-5-------4-------|
Ab|-2---2---2-2-2-2-|-----------------|-----------------|-----------------|
Eb|-----------------|-----------------|-----------------|-----------------|
    1 & 2 & 3 & 4 &   1 & 2 & 3 & 4 &   1 & 2 & 3 & 4 &   1 & 2 & 3 & 4 &

Gb|-----------------|
Db|-----------------|
Ab|-2---------------|
Eb|-----------------|
    1 & 2 & 3 & 4 &            
Submit corrections


        Beer Goggles lessons Hard to play? Try these video lessons and learn fast Beer Goggles lessons
        
↑ Back to top | Tablatures and chords for acoustic guitar and electric guitar, ukulele, drums are parodies/interpretations of the original songs. You may use it for private study, scholarship, research or language learning purposes only