Home » S » Smak »

Smak - Zivim Tabs

Artists:  A B C D E F G H I J K L M N O P Q R S T U V W X Y Z # 

Zivim Tabs

(ver. 1) Click to play this song!
Smak
Smak / Zivim...Biska 16:    
  

/=slide up
\=slide down
p=pull of
h=hammer on
^=band
r=release
t=threplet
"=32nd note
x=pause

  riff 
e---------------------|--------------------|--------------------|
B---------------------|--------------------|--------------------|
G---------------------|--------------------|--------------------|
D2p0------------------|2p0-----------------|2p0-----------------|
A---4p0---07p0---57---|---4p0---07p0---57--|---4p0---07p0---57--|
E------3/5----5p0----0|------3/5----5p0---0|------3/5----5p0---0|
                                                                                
----------------------------||  
----------------------------||  
----------------------------||  
3tp2tp0t--------------------||  
--------4p0-----07p0---57---||  
-----------3/5------5p0-----||  


                       
                A part
|----------------|----------------|--------|----------------|-------- 
|----------------|----------------|--------|----------------|--------
|----------------|---4------5---7-|--------|----------------|---4---- 
|---2-------5----|--4--4-4--5---7-|--5---7-|---2-------5----|--4--4-4 
|--2--2-2--5--5-5|2-----2-3---5---|--5---7-|--2--2-2--5--5-5|2-----2- 
|0-----0-3-----3-|----------------|3---5---|0-----0-3-----3-|--------  

                                    
--------|----------------|----------------||   
--------|----------------|----------------||   
---4----|5---------------|545-------------||   
--4--4-4|5---------------|---767----------||   
2-----2-|3---------------|------545-------|| 
--------|----------------|---------767545-|| 
 

B part 
|----------------|----------------|---------------|----------------||
|----------------|----------------|---------------|----------------||
|------9-5-------|----------------|------9--5-----|----------------||
|7--7-7-7-7-7----|99-9-9--77-7----|7--7-7-77-7----|99-9-9--77-7----||
|----------------|77-7-7--77-7----|---------------|77-7-7--77-7----||
|----------------|00-0-0--55-5----|---------------|00-0-0--55-5----||

 C part
|----------------|----------------|----------------|----------------|
|----------------|----------------|----------------|----------------|
|55--------------|77--------------|55--------------|77--------------|
|55--------55----|77--77----22----|55--------55----|77--77----22----|
|33--------55----|55--77----22----|33--------55----|55--77----22----|
|----------33----|----55----00----|----------33----|----55----00----|

|----------------|----------------|----------------|---0-3p0---------------| 
|----------------|----------------|----------------|0h3-0---3p0------------| 
|55--------------|77--------------|55--------------|-----------3p2p0-2p0---|
|55--------55----|77--77----22----|55--------55----|----------------2---2p0|
|33--------55----|55--77----22----|33--------55----|-----------------------|
|----------33----|----55----00----|----------33----|-----------------------|

|----------------|-----------------|-----------------|---------3p0--------||  
|----------------|-----------------|-----------------|------------3p0-----||  
|----------------|-----------------|-----------------|---------------3p20-|| 
|--------------7-|---------------7-|---------------7-|--------------------|| 
|---7-7-77--5-5--|5h7---7--7--5-5--|5h7-7-7-77--5-5--|5h7-7-7-------------|| 
|0--------------0|----0---0-------0|----------------0|--------------------||

form: riff|A|riff|B|C|riff|A|riff|B|C
            
Submit corrections

↑ Back to top | Tablatures and chords for acoustic guitar and electric guitar, ukulele, drums are parodies/interpretations of the original songs. You may use it for private study, scholarship, research or language learning purposes only