Home » S » Smak »

Smak - Daire/Satelit Tabs

Artists:  A B C D E F G H I J K L M N O P Q R S T U V W X Y Z # 

Daire/Satelit Tabs

(ver. 1) Click to play this song!
Smak
Grupa: Smak
Pesma: Daire
Transcription: Boris Zivkovic  (walkaway)
*******************************************************************************************
Intro & Verses (Part 1)
E--------------------------------------
H--------------------------------------
G----------0----------------------5----
D--------2---2---0------0-------4---4--
A-----2--------2------2---2---5--------
E--0----------------3------------------

prelaz : (Part 2)
E------------------
H------------------
G--9---11---9---7--
D--9---11---9---7--
A--7----9---7---5--
E------------------
*******

Part1
Negde iz daleka, cuju se daire
mesecevom senkom dolaze cigani
             AGFisH Part 3
negde iz dalekaaaaaa

Part 3
E---------------------------------------------------
H---------------------------------------------------
G---------------------------------------------------
D---------------------------2--2--------------------
A---------2-----------------2--2--------------------
E---3--5-----3--2--3--5--2--0--0--------------------


Refren:
Em       D    C    Part3
Isti je u oku sjaj,
Em       D        C   Part3
da li je java il' san
daire dajte mi vi ....
            
Submit corrections

↑ Back to top | Tablatures and chords for acoustic guitar and electric guitar, ukulele, drums are parodies/interpretations of the original songs. You may use it for private study, scholarship, research or language learning purposes only