Home » S » Sly And The Family Stone »

Sly And The Family Stone - I Want To Take You Higher Tabs

Artists:  A B C D E F G H I J K L M N O P Q R S T U V W X Y Z # 

I Want To Take You Higher Tabs

(ver. 1) Click to play this song!
Sly And The Family Stone
Intro & Interlude
  Q=108
  N.C.
 4/4                                  3/4
  Gtr I (El. Gtr. w/ light dist.)
          ~~~~~~            ~~~~~~          ~~~~~~
  E    Q  E +H       E   Q  E +H       E Q  E +Q
|------------------|-----------------|-------------||
|-8b10-8--5-(5)----|-----------------|-------------||
|------------------|-7b9-7--5-(5)----|-5-----------||
|------------------|-----------------|---5--7-(7)--||
|------------------|-----------------|-------------||
|------------------|-----------------|-------------||


   1st - 3rd Verses
    Am7
   4/4
    Q  E S S S S E S S S S   S S S S S S E E S S S S S S
||--5----------------------|-----------------------------|
||o-5------------5---------|-------------7-5-------------|
||--5------------5---------|-------------7-5-------------|
||-------------------------|-----------------------------|
||o----0-0-0-0-0---0-0-0-0-|-0-0-0-0-0-0-----0-0-0-0-0-0-|
||-------------------------|-----------------------------|


  E S S S S S S a E E S S S S
|-----------------------------|
|-7-------------------x-5-----|
|-7-----------------5-x-5-----|
|-------------------5-----7---|
|---0-0-0-0-0-0-5s7-------0-0-|
|-----------------------------|


  S S S S S S E E E S S S S   E S S E S S S S E S S S S
|---------------------------|-5-------------------------|
|-------------7-5-----------|-5---------------5---------|
|-------------7-5-----------|-5---------------5---------|
|---------------------------|-----------------------5---|
|-0-0-0-0-0-0-------0-0-0-0-|---0-0-0-0-0-0-0---0-0-0-0-|
|---------------------------|---------------------------|


  S S S S S S E E S S S S S S
|-------------7-----------------|
|-------------7-5---------------|
|-------------7-5---------------|
|-------------------------------|
|-0-0-0-0-0-0---------0-0-0-0---|
|-------------------------------|


                       CsusAm7
   E S S S S S S a S S E E S S
|----------------------8-------|
|----------------------8-------|
|--------------------0-7-------|
|------------------------7-----|
|-/7-0-0-0-0-0-0-5s7-----0-0-0-|
|------------------------------|


                              Chorus
                               Am7
  S S S S S S E E E S S S S    E S S S S S S S S  Q  E
|---------------------------||-------------------------|
|-------------7-5-----------||-------------------------|
|-------------7-5-----------||-5---------------------5-|
|-------------7---------5---||-5---------------------5-|
|-0-0-0-0-0-0-------0-0-0-0-||---0-0-0-0-0-0-0-7s10----|
|---------------------------||-------------------------|


  S S S S S S E E E S S S S   E S S S S S S S S  Q  E
|---------------------------|-------------------------|
|-------------7-5-----------|-------------------------|
|-------------7-5-----------|-5---------------------5-|
|---------------------------|-5---------------------5-|
|-0-0-0-0-0-0-------0-0-0-0-|---0-0-0-0-0-0-0-7s10----|
|---------------------------|-------------------------|


  S S S S S S E E E S S S S
|----------------------------|
|-------------7-5------------|
|-------------7-5------------|
|----------------------------|
|-0-0-0-0-0-0-------0-0-0-0--|
|----------------------------|


                GsusCsus2Am7
  E S S S S S S S S  E S S S S   S S S S S S E E S S S S S S
|------------------------------|-----------------------------|
|-----------------8s13---------|-------------7-5-------------|
|-5---------------7s12---------|-------------7-5-------------|
|-5---------------7s12---------|-----------------------------|
|---0-0-0-0-0-0-0------0-0-0-0-|-0-0-0-0-0-0-----0-0-0-0-0-0-|
|------------------------------|-----------------------------|


  E S S S S S S S S S S S S S S
|---------------------------------|
|---------------------------------|
|-5-----------------5---5---5-----|
|-5-----------------5---5---5-----|
|---0-0-0-0-0-0-0-0---0---0---0---|
|---------------------------------|


                                         Interlude
                         To Coda
                                          N.C.
                                                  ~~~~~~
  S S S S S S E E S S S S E   W           E    Q  E +H
|---------------------------|----------||------------------|
|-------------7-5-----------|----------||-8b10-8--5-(5)----|
|-5-----------7-5-----------|----------||------------------|
|-5-------------------------|----------||------------------|
|---0-0-0-0-0-----0-0-0-0-0-|----------||------------------|
|---------------------------|----------||------------------|


                                                   Harmonica Solo
                   1.              2.
                                                    Am7
                   3/4             3/4             4/4
         ~~~~~~          ~~~~~~          ~~~~~~
  E   Q  E +H       E Q  E +Q       E Q  E +Q       Q  E S S S S E S S S S
|-----------------|--------------||-------------||--5----------------------|
|-----------------|-------------o||-------------||o-5------------5---------|
|-7b9-7--5-(5)----|-5------------||-5-----------||--5------------5---------|
|-----------------|---5--7-(7)---||---5--7-(7)--||-------------------------|
|-----------------|-------------o||-------------||o----0-0-0-0-0---0-0-0-0-|
|-----------------|--------------||-------------||-------------------------|


  S S S S S S E E S S S S S S   E S S S S S S a E E S S S S
|-----------------------------|-----------------------------|
|-------------7-5-------------|-7-------------------x-5-----|
|-------------7-5-------------|-7-----------------5-x-5-----|
|-----------------------------|-------------------5-----7---|
|-0-0-0-0-0-0-----0-0-0-0-0-0-|---0-0-0-0-0-0-5s7-------0-0-|
|-----------------------------|-----------------------------|


 1.
  S S S S S S E E E S S S S
|-----------------------------||
|-------------7-5------------o||
|-------------7-5-------------||
|-----------------------------||
|-0-0-0-0-0-0-------0-0-0-0--o||
|-----------------------------||


                              Chorus
  2.
                               Am7
  S S S S S S E E E S S S S    E S S S S S S S S  Q  E
|---------------------------||-------------------------|
|-------------7-5-----------||-------------------------|
|-------------7-5-----------||-5---------------------5-|
|-------------7---------5---||-5---------------------5-|
|-0-0-0-0-0-0-------0-0-0-0-||---0-0-0-0-0-0-0-7s10----|
|---------------------------||-------------------------|


  S S S S S S E E S S S S S S
|-----------------------------|
|-------------7-5-------------|
|-------------7-5-------------|
|-----------------------------|
|-0-0-0-0-0-0-----0-0-0-0-0-0-|
|-----------------------------|


  E S S S S S S S S  Q  E   S S S S S S E E E S S S S
|-------------------------|---------------------------|
|-------------------------|-------------7-5-----------|
|-5---------------------5-|-------------7-5-----------|
|-5---------------------5-|---------------------------|
|---0-0-0-0-0-0-0-7s10----|-0-0-0-0-0-0-------0-0-0-0-|
|-------------------------|---------------------------|


                GsusCsus2Am7
  E S S S S S S S S  E S S S S
|------------------------------|
|-----------------8s13---------|
|-5---------------7s12---------|
|-5---------------7s12---------|
|---0-0-0-0-0-0-0------0-0-0-0-|
|------------------------------|


  S S S S S S E E S S S S S S   E S S S S S S S S S S S S S S
|-----------------------------|-------------------------------|
|-------------7-5-------------|-------------------------------|
|-------------7-5-------------|-5-----------------5---5---5---|
|-----------------------------|-5-----------------5---5---5---|
|-0-0-0-0-0-0-----0-0-0-0-0-0-|---0-0-0-0-0-0-0-0---0---0---0-|
|-----------------------------|-------------------------------|


                D.C. al Coda
  S S S S S S E E S S S S E
|------------------------------||
|-------------7-5--------------||
|-5-----------7-5--------------||
|-5----------------------------||
|---0-0-0-0-0-----0-0-0-0-0----||
|------------------------------||


   Outro
    &
    Am7
    E S S S S S S S S  Q  E
||--------------------------|
||o-------------------------|
||--5---------------------5-|
||--5---------------------5-|
||o---0-0-0-0-0-0-0-7s10----|
||--------------------------|


  S S S S S S E E S S S S S S   E S S S S S S S S  Q  E
|-----------------------------|-------------------------|
|-------------7-5-------------|-------------------------|
|-------------7-5-------------|-5---------------------5-|
|-----------------------------|-5---------------------5-|
|-0-0-0-0-0-0-----0-0-0-0-0-0-|---0-0-0-0-0-0-0-7s10----|
|-----------------------------|-------------------------|


                                                                  Gsus2  Csus2Am7
  S S S S S S E E E S  S    S S    E    S  S       S   S  S     S   S  S  E S S S S
|-------------------------------|---------------------------------------------------|
|-------------7-5---------------|--------------------------------------8s13---------|
|-------------7-5---------------|--5-----------------------------------7s12---------|
|-------------------------------|--5-----------------------------------7s12---------|
|-0-0-0-0-0-0-------0--0----0-0-|-------0--0-------0---0--0-----0---0-------0-0-0-0-|
|-------------------------------|---------------------------------------------------|
|
| Gtr II (El. Gtr. w/ light dist.)
|                                                                   ~~~~~~~~~~~~~~~~~
| H             Q   S  E.          E.      S      +E      E        +H
|-------------------------------|---------------------------------------------------|
|-------------------x-15b17-----|-15b17---15b17==(15)r---15b17====(15)--------------|
|-------------------------------|---------------------------------------------------|
|-------------------------------|---------------------------------------------------|
|-------------------------------|---------------------------------------------------|
|-------------------------------|---------------------------------------------------|


    S   S S S S S E E  S    S S  S  S S
|----------------------------------------|
|-----------------7-5--------------------|
|-----------------7-5--------------------|
|----------------------------------------|
|---0---0-0-0-0-0------0----0-0--0--0-0--|
|----------------------------------------|
|
|~~~~~~~
|  +H               E  E      S  e.
|----------------------------------------|
|-(15)r---------------17b20-----17-------|
|----------------------------------------|
|----------------------------------------|
|----------------------------------------|
|----------------------------------------|


   E          S  S  S  S S  S  S  S S  S  S S  S S    S S S S S S E E S S S S E
|--------------------------------------------------|----------------------------|
|--------------------------------------------------|--------------7-5-----------|
|--5--------------------------------5-----5----5---|--5-----------7-5-----------|
|--5--------------------------------5-----5----5---|--5-------------------------|
|-------------0--0--0--0-0--0--0--0----0----0----0-|----0-0-0-0-0-----0-0-0-0-0-|
|--------------------------------------------------|----------------------------|
|
|                                                     ~~
|  S     +S   S  S  E.      S  E.      S  E    E      W
|--------------------------15----------------------|----------------------------|
|-15b17r(15)-13------------------------------------|----------------------------|
|---------------14-14---------14------14-14s==12---|-12-------------------------|
|--------------------------------------------------|----------------------------|
|--------------------------------------------------|----------------------------|
|--------------------------------------------------|----------------------------|


  E S S S S S S S S  Q  E   S S S S S S E E S S S S S S
|-------------------------|------------------------------|
|-------------------------|-------------7-5--------------|
|-5---------------------5-|-------------7-5--------------|
|-5---------------------5-|------------------------------|
|---0-0-0-0-0-0-0-7s10----|-0-0-0-0-0-0-----0-0-0-0-0-0--|
|-------------------------|------------------------------|
|
| W                         W
|-------------------------|------------------------------|
|-------------------------|------------------------------|
|-------------------------|------------------------------|
|-------------------------|------------------------------|
|-------------------------|------------------------------|
|-------------------------|------------------------------|


  E S S S S S S S S  Q  E   S S S S S S E E E S S S S
|-------------------------|---------------------------|
|-------------------------|-------------7-5-----------|
|-5---------------------5-|-------------7-5-----------|
|-5---------------------5-|---------------------------|
|---0-0-0-0-0-0-0-7s10----|-0-0-0-0-0-0-------0-0-0-0-|
|-------------------------|---------------------------|


                GsusCsus2Am7
  E S S S S S S S S  E S S S S
|------------------------------|
|-----------------8s13---------|
|-5---------------7s12---------|
|-5---------------7s12---------|
|---0-0-0-0-0-0-0------0-0-0-0-|
|------------------------------|


  S S S S S S E E S S S S S S   E S S S S S S S S S S S S S S  4x
|-----------------------------|--------------------------------||
|-------------7-5-------------|-------------------------------o||
|-------------7-5-------------|-5-----------------5---5---5----||
|-----------------------------|-5-----------------5---5---5----||
|-0-0-0-0-0-0-----0-0-0-0-0-0-|---0-0-0-0-0-0-0-0---0---0---0-o||
|-----------------------------|--------------------------------||
            
Submit corrections

↑ Back to top | Tablatures and chords for acoustic guitar and electric guitar, ukulele, drums are parodies/interpretations of the original songs. You may use it for private study, scholarship, research or language learning purposes only