Home » S » Sly And The Family Stone »

Sly And The Family Stone - Everyday People Tabs

Artists:  A B C D E F G H I J K L M N O P Q R S T U V W X Y Z # 

Everyday People Tabs

(ver. 1) Click to play this song!
Sly And The Family Stone
   Intro
    Q=118
    G             C/G       G                              C/G
   4/4
    Gtr I (El. Piano arr. for Gtr.)
     H.       +E   E    +E   E  +H.           H.       +E   E
||-------------------|--------------------||------------------|
||o-12-------(12)-13-|-(13)-12-(12)------o||-12-------(12)-13-|
||--12-------(12)-12-|-(12)-12-(12)-------||-12-------(12)-12-|
||--12-------(12)-14-|-(14)-12-(12)-------||-12-------(12)-14-|
||o-10-------(10)----|------10-(10)------o||-10-------(10)----|
||----------------15-|-(15)---------------||---------------15-|


                          1st & 2nd Verses
                        $
       G                   G            C
   +E   E  +H.              H.       E   E
|-----------------------||-----------------|
|-(13)-12-(12)----------||-12-----------13-|
|-(12)-12-(12)----------||-12-----------12-|
|-(14)-12-(12)----------||-12-----------14-|
|------10-(10)----------||-10--------------|
|-(15)------------------||--------------15-|
|
| Gtr II                   Gtr III
|   H           E E E E     H.      +E   E
|-----------------------||-----------------|
|-----------------------||--3-------(3)--5-|
|-----------------------||--4-------(4)--5-|
|-----------------------||--5-------(5)--5-|
|-----------------------||--5-------(5)--3-|
|-----------------3-3-3-||--3-------(3)----|


      G                                C
   E   E  +Q    +Q.   E    H.       E   E
|-----------------------|-----------------|
|-----12-(12)--(12)-----|-12-----------13-|
|-----12-(12)--(12)-----|-12-----------12-|
|-----12-(12)--(12)-----|-12-----------14-|
|-----10-(10)--(10)-----|-10--------------|
|-----------------------|--------------15-|
|
| +E   E  +H.              H.      +E   E
|-----------------------|-----------------|
|-(5)--3--(3)-----------|--3-------(3)--5-|
|-(5)--4--(4)-----------|--4-------(4)--5-|
|-(5)--5--(5)-----------|--5-------(5)--5-|
|-(3)--5--(5)-----------|--5-------(5)--3-|
|------3--(3)-----------|--3-------(3)----|


      G                                C
   E   E  +Q    +Q.   E    H.       E   E
|-----------------------|-----------------|
|-----12-(12)--(12)-----|-12-----------13-|
|-----12-(12)--(12)-----|-12-----------12-|
|-----12-(12)--(12)-----|-12-----------14-|
|-----10-(10)--(10)-----|-10--------------|
|-----------------------|--------------15-|
|
| +E   E  +H.              H.      +E   E
|-----------------------|-----------------|
|-(5)--3--(3)-----------|--3-------(3)--5-|
|-(5)--4--(4)-----------|--4-------(4)--5-|
|-(5)--5--(5)-----------|--5-------(5)--5-|
|-(3)--5--(5)-----------|--5-------(5)--3-|
|------3--(3)-----------|--3-------(3)----|


      G                                C
   E   E  +Q    +Q.   E    H.       E   E
|-----------------------|-----------------|
|-----12-(12)--(12)-----|-12-----------13-|
|-----12-(12)--(12)-----|-12-----------12-|
|-----12-(12)--(12)-----|-12-----------14-|
|-----10-(10)--(10)-----|-10--------------|
|-----------------------|--------------15-|
|
| +E   E  +H.              H.      +E   E
|-----------------------|-----------------|
|-(5)--3--(3)-----------|--3-------(3)--5-|
|-(5)--4--(4)-----------|--4-------(4)--5-|
|-(5)--5--(5)-----------|--5-------(5)--5-|
|-(3)--5--(5)-----------|--5-------(5)--3-|
|------3--(3)-----------|--3-------(3)----|


      G                                C
   E   E  +Q    +Q.   E    H.       E   E
|-----------------------|-----------------|
|-----12-(12)--(12)-----|-12-----------13-|
|-----12-(12)--(12)-----|-12-----------12-|
|-----12-(12)--(12)-----|-12-----------14-|
|-----10-(10)--(10)-----|-10--------------|
|-----------------------|--------------15-|
|
| +E   E  +H.              H.      +E   E
|-----------------------|-----------------|
|-(5)--3--(3)-----------|--3-------(3)--5-|
|-(5)--4--(4)-----------|--4-------(4)--5-|
|-(5)--5--(5)-----------|--5-------(5)--5-|
|-(3)--5--(5)-----------|--5-------(5)--3-|
|------3--(3)-----------|--3-------(3)----|


      G                                C
   E   E  +Q    +Q.   E    H.       E   E
|-----------------------|-----------------|
|-----12-(12)--(12)-----|-12-----------13-|
|-----12-(12)--(12)-----|-12-----------12-|
|-----12-(12)--(12)-----|-12-----------14-|
|-----10-(10)--(10)-----|-10--------------|
|-----------------------|--------------15-|
|
| +E   E  +H.              H.      +E   E
|-----------------------|-----------------|
|-(5)--3--(3)-----------|--3-------(3)--5-|
|-(5)--4--(4)-----------|--4-------(4)--5-|
|-(5)--5--(5)-----------|--5-------(5)--5-|
|-(3)--5--(5)-----------|--5-------(5)--3-|
|------3--(3)-----------|--3-------(3)----|


                            Bridge
                          $$
      G                      G               C      G
   E   E  +Q    +Q.     E     H.           E  E   E  E  +Q     +Q.     E
|-------------------------||--------------------|------------------------|
|-----12-(12)--(12)-------||-12--------------13-|---12-(12)---(12)-------|
|-----12-(12)--(12)-------||-12--------------12-|---12-(12)---(12)-------|
|-----12-(12)--(12)-------||-12--------------14-|---12-(12)---(12)-------|
|-------------------------||-10-----------------|---10-(10)---(10)-------|
|-----15-(15)--(15)-------||-----------------15-|------------------------|
|
| Gtr III (Clean El. Gtr.)
| +E   E  +H.                 E  E E E E E E  E   E  E   E  E   E  E E E
|-------------------------||--------------------|------------------------|
|-(5)--3--(3)-------------||--3----3---3---3----|-5------3------3----3---|
|-(5)--4--(4)-------------||--4----4---4---4----|-5------4------4----4---|
|-(5)--5--(5)-------------||--5----5---5---5----|-5------5------5----5---|
|-(3)--5--(5)-------------||--5--5-5-5-5-5-5--3-|-3--5---5--5---5--5-5-5-|
|------3--(3)-------------||--3----3---3---3----|--------3------3----3---|
|
| Gtr II (El. Gtr. w/ dist.)
|  H             E  E E E     W                   W
|-------------------------||--------------------|------------------------|
|-------------------------||--------------------|------------------------|
|-------------------------||--------------------|------------------------|
|-------------------------||--------------------|------------------------|
|-------------------------||--------------------|------------------------|
|-------------------3-3-3-||--------------------|------------------------|


                  C      G                                      C
   H.           E  E   E  E  +Q     +Q.     E    H.           E  E
|--------------------|------------------------|--------------------|
|-12--------------13-|---12-(12)---(12)-------|-12--------------13-|
|-12--------------12-|---12-(12)---(12)-------|-12--------------12-|
|-12--------------14-|---12-(12)---(12)-------|-12--------------14-|
|-10-----------------|---10-(10)---(10)-------|-10-----------------|
|-----------------15-|------------------------|-----------------15-|
|
|  E  E E E E E E  E   E  E   E  E   E  E E E    E  E E E E E E  E
|--------------------|------------------------|--------------------|
|--3----3---3---3----|-5------3------3----3---|--3----3---3---3----|
|--4----4---4---4----|-5------4------4----4---|--4----4---4---4----|
|--5----5---5---5----|-5------5------5----5---|--5----5---5---5----|
|--5--5-5-5-5-5-5--3-|-3--5---5--5---5--5-5-5-|--5--5-5-5-5-5-5--3-|
|--3----3---3---3----|--------3------3----3---|--3----3---3---3----|


    G                                      C      G
  E  E  +Q     +Q.     E    H.           E  E   E  E  +Q     +Q.     E
|------------------------|--------------------|------------------------|
|---12-(12)---(12)-------|-12--------------13-|---12-(12)---(12)-------|
|---12-(12)---(12)-------|-12--------------12-|---12-(12)---(12)-------|
|---12-(12)---(12)-------|-12--------------14-|---12-(12)---(12)-------|
|---10-(10)---(10)-------|-10-----------------|---10-(10)---(10)-------|
|------------------------|-----------------15-|------------------------|
|
| E  E   E  E   E  E E E    E  E E E E E E  E   E  E   E  E   E  E E E
|------------------------|--------------------|------------------------|
|-5------3------3----3---|--3----3---3---3----|-5------3------3----3---|
|-5------4------4----4---|--4----4---4---4----|-5------4------4----4---|
|-5------5------5----5---|--5----5---5---5----|-5------5------5----5---|
|-3--5---5--5---5--5-5-5-|--5--5-5-5-5-5-5--3-|-3--5---5--5---5--5-5-5-|
|--------3------3----3---|--3----3---3---3----|--------3------3----3---|


                                       To Coda
                                       To Coda
                  C      G
   H.           E  E   E  E  +Q     +Q.     E
|--------------------|-------------------------|
|-12--------------13-|---12-(12)---(12)--------|
|-12--------------12-|---12-(12)---(12)--------|
|-12--------------14-|---12-(12)---(12)--------|
|-10-----------------|---10-(10)---(10)--------|
|-----------------15-|-------------------------|
|
|  E  E E E E E E  E   E  E   E  E   E  E E E
|--------------------|-------------------------|
|--3----3---3---3----|-5------3------3----3----|
|--4----4---4---4----|-5------4------4----4----|
|--5----5---5---5----|-5------5------5----5----|
|--5--5-5-5-5-5-5--3-|-3--5---5--5---5--5-5-5--|
|--3----3---3---3----|--------3------3----3----|


                                  D.S. al Coda
                  C      G
   H.           E  E   E  E  +Q     +Q.     E
|--------------------|---------------------------||
|-12--------------13-|---12-(12)---(12)----------||
|-12--------------12-|---12-(12)---(12)----------||
|-12--------------14-|---12-(12)---(12)----------||
|-10-----------------|---10-(10)---(10)----------||
|-----------------15-|---------------------------||
|
|  E  E E E E E E  E   E  E   E  E   E  E E E
|--------------------|---------------------------||
|--3----3---3---3----|-5------3------3----3------||
|--4----4---4---4----|-5------4------4----4------||
|--5----5---5---5----|-5------5------5----5------||
|--5--5-5-5-5-5-5--3-|-3--5---5--5---5--5-5-5----||
|--3----3---3---3----|--------3------3----3------||


                                                 Outro
  &                        D.S.S. al Dbl. Coda &&
  G               C      G                        G               C
   H.           E  E   E  E  +Q     +Q.     E      H.           E  E
|--------------------|-------------------------||--------------------|
|-12--------------13-|---12-(12)---(12)--------||-12--------------13-|
|-12--------------12-|---12-(12)---(12)--------||-12--------------12-|
|-12--------------14-|---12-(12)---(12)--------||-12--------------14-|
|-10-----------------|---10-(10)---(10)--------||-10-----------------|
|-----------------15-|-------------------------||-----------------15-|
|
|  E  E E E E E E  E   E  E   E  E   E  E E E      E  E E E E E E  E
|--------------------|-------------------------||--------------------|
|--3----3---3---3----|-5------3------3----3----||--3----3---3---3----|
|--4----4---4---4----|-5------4------4----4----||--4----4---4---4----|
|--5----5---5---5----|-5------5------5----5----||--5----5---5---5----|
|--5--5-5-5-5-5-5--3-|-3--5---5--5---5--5-5-5--||--5--5-5-5-5-5-5--3-|
|--3----3---3---3----|--------3------3----3----||--3----3---3---3----|


                           H.=H
    G
  E  E  +Q     +Q.     E    W           +H.      Q
|------------------------|-----------|---------------*|
|---12-(12)---(12)-------|-12--------|-(12)----------*|
|---12-(12)---(12)-------|-12--------|-(12)----------*|
|---12-(12)---(12)-------|-12--------|-(12)----------*|
|---10-(10)---(10)-------|-10--------|-(10)----------*|
|------------------------|-----------|---------------*|
|
| E  E   E  E   E  E E E    W           +H.      E e
|------------------------|-----------|---------------*|
|-5------3------3----3---|--3--------|--(3)--------3-*|
|-5------4------4----4---|--4--------|--(4)--------4-*|
|-5------5------5----5---|--5--------|--(5)--------5-*|
|-3--5---5--5---5--5-5-5-|--5--------|--(5)--------5-*|
|--------3------3----3---|--3--------|--(3)--------3-*|            
Submit corrections

↑ Back to top | Tablatures and chords for acoustic guitar and electric guitar, ukulele, drums are parodies/interpretations of the original songs. You may use it for private study, scholarship, research or language learning purposes only