Home » S » Sly And The Family Stone »

Sly And The Family Stone - Everybody Is A Star Bass

Artists:  A B C D E F G H I J K L M N O P Q R S T U V W X Y Z # 

Everybody Is A Star Bass

(ver. 1) Click to play this song!
Sly And The Family Stone
Everybody Is A Star -- Sly and the Family Stone/Anthology


Paying tribute to a different band every first Wednesday of the month at
Martyr's -- 3855 N. Lincoln Ave. -- Chicago, IL 60613 --(773) 404-9494

August 2002 -- The Who
September 2002 -- Sly and the Family Stone
October 2002 -- Crosby, Stills, Nash & Young

Intro
  
G|---------|---------|---------|------------|
D|---------|---------|---------|-1-1---3-3--|
A|-1--1----|-0--0----|---------|------------|
E|---------|---------|-4--4----|------------|
   1 2&3 4   1 2&3 4

Verse

Play this section 3 times        
                         
G|---------|---------|---------|-----------|
D|---------|---------|---------|-0-1-3-----|
A|-1--1----|-0--0----|---------|-------1---|
E|---------|---------|-4--4----|-----------|
   

Forth time transition into chorus

G|---------|---------|---------|------------|
D|---------|---------|---------|-1-1-3-1-0--|
A|-1--1----|-0--0----|---------|------------|
E|---------|---------|-4--4----|------------|
   
 
Chorus

G|-----------------|-----------------|
D|-----------------|-----------------|
A|-3-3-3-3-3-3-3-3-|-2-2-2-2-2-2-2-2-|
E|-----------------|-----------------|


G|-----------------|-----------------|
D|-----------------|-----------------|
A|-7-7-7-7-7-7-7-7-|-----------------|
E|-----------------|-3---------------|
            
Submit corrections

↑ Back to top | Tablatures and chords for acoustic guitar and electric guitar, ukulele, drums are parodies/interpretations of the original songs. You may use it for private study, scholarship, research or language learning purposes only