» » »

Slowdive - Tabs

Artists:  A B C D E F G H I J K L M N O P Q R S T U V W X Y Z # 

Tabs

(ver. 1) Click to play this song!
Slowdive
 Rating:
4.3/5 (27 votes)

  lessons Tabs too difficult? Try these video lessons and learn fast
 
                [Intro] 6X Singing Starts on 5th time
e|---------------------------------------|
B|---------------------------------------|
G|--9----11----12----16-----9------------|
D|---------------------------------------|
A|---------------------------------------| 
E|--8----10----12----15-----8------------|

OR 

e|---------------------------------------------|
B|--5---7---8----12----5-----------------------|
G|---------------------------------------------| 
D|---------------------------------------------|
A|--3---5---7----10----3-----------------------|
E|---------------------------------------------|

Play the parts with your Thumb on the Bass notes and Middle finger on the higher note (tuck your pick in/under
your pointer finger so you can use it later)
 
[Lead Part Intro 2x comes in after two intro riffs]
e|---------------------------------------------------|
B|--5-5-5-5--7-7-7-7--8-8-8-8---12-12-12-12--5-------|
G|---------------------------------------------------|
D|---------------------------------------------------|
A|---------------------------------------------------|
E|---------------------------------------------------|


[CHORUS] 4X 
 Amin, Gmaj, Cmaj , A min
e|-------0-------------------------------------------------------------------------------|
B|--1----0-----1---------------------1---------------------------------------------------|
G|--2----0-----0---------------------2----5-5-5-5-5-7-7-7-7-4-4-4-4-4--------------------|
D|--2----0-----2---------------------2---------------------------------------------------|
A|--0----2-----3---------------------0---------------------------------------------------|
E|-------3-------------------------------------------------------------------------------|
 
(Variation of the chorus)
e|---------------------------------------------------------------------------------------|
B|------------5-----------------------------13-13-13-13-13-15-15-15-15-12-12-12-12-12----|
G|---5---4-------------------------------------------------------------------------------|
D|---------------------------------------------------------------------------------------|
A|------------3---------------------12---------------------------------------------------|
E|---5---3-------------------------------------------------------------------------------|

[Interlude] 1X

e|---------------------------------------|
B|---------------------------------------|
G|--9----11----12----16-----9------------|
D|---------------------------------------|
A|---------------------------------------| Intro Riff X4
E|--8----10----12----15-----8------------|

e|-------------------------------------|
B|---8-7-5-5-8-7-5-5-------------------| 16 X  (Lead Part for Interlude with some Phaser)
G|-------------------------------------|
D|-------------------------------------|
A|-------------------------------------|
E|-------------------------------------| 

[CHORUS] 4X 
 Amin, Gmaj, Cmaj , A min
e|-------0-------------------------------------------------------------------------------|
B|--1----0-----1---------------------1---------------------------------------------------|
G|--2----0-----0---------------------2----5-5-5-5-5-7-7-7-7-4-4-4-4-4--------------------|
D|--2----0-----2---------------------2---------------------------------------------------|
A|--0----2-----3---------------------0---------------------------------------------------|
E|-------3-------------------------------------------------------------------------------|
 
(Variation of the chorus)

e|---------------------------------------------------------------------------------------|
B|------------5-----------------------------13-13-13-13-13-15-15-15-15-12-12-12-12-12----|
G|---5---4-------------------------------------------------------------------------------|
D|---------------------------------------------------------------------------------------|
A|------------3---------------------12---------------------------------------------------|
E|---5---3-------------------------------------------------------------------------------|

[Breakdown before Solo] 2X
e|-------------------------------------|
B|------5---3---0----------------------| 
G|-------------------------------------|
D|-------------------------------------|
A|-------------------------------------|
E|-------------------------------------|

[SOLO A] (2x) (guitar 1)
e|-----------------------------------------------------------------------------------------------------------|
B|-----------------------------------------------------------------------------------------------------------|
G|----------17-17-17-17-17-17-16--12-12-12-12-12-12---------14-14-14-14-14-14-12---12-12-12-12-12-12---------|
D|---10/14-----------------------------------------------10--------------------------------------------------|
A|-----------------------------------------------------------------------------------------------------------|
E|-----------------------------------------------------------------------------------------------------------|

[Solo Part B comes after A] (guitar 1)
e|-------------------------------------|
B|-------------------------------------| 
G|------14-12------14-12------14-12----|
D|---10---------10---------10----------|
A|-------------------------------------|
E|-------------------------------------|

(Guitar 2 Solo Part B) Played together with A)
e|--------------------------------|
B|----1-1-0---1-1-0---1-1-0-------| 
G|--------------------------------|
D|--------------------------------|
A|--------------------------------|
E|--------------------------------|

[CHORUS] 4X 
 Amin, Gmaj, Cmaj , A min

e|-------0-------------------------------------------------------------------------------|
B|--1----0-----1---------------------1---------------------------------------------------|
G|--2----0-----0---------------------2----5-5-5-5-5-7-7-7-7-4-4-4-4-4--------------------|
D|--2----0-----2---------------------2---------------------------------------------------|
A|--0----2-----3---------------------0---------------------------------------------------|
E|-------3-------------------------------------------------------------------------------|
 
(Variation of the chorus)

e|---------------------------------------------------------------------------------------|
B|------------5-----------------------------13-13-13-13-13-15-15-15-15-12-12-12-12-12----|
G|---5---4-------------------------------------------------------------------------------|
D|---------------------------------------------------------------------------------------|
A|------------3---------------------12---------------------------------------------------|
E|---5---3-------------------------------------------------------------------------------|

[Ending] 1X
e|---------------------------------------|
B|---------------------------------------|
G|--9----11----12----16-----9------------|
D|---------------------------------------|
A|---------------------------------------|  
E|--8----10----12----15-----8------------|            
Submit corrections


         lessons Hard to play? Try these video lessons and learn fast  lessons
        
↑ Back to top | Tablatures and chords for acoustic guitar and electric guitar, ukulele, drums are parodies/interpretations of the original songs. You may use it for private study, scholarship, research or language learning purposes only