Home » S » Slowdive »

Slowdive - Morningrise Tabs

Artists:  A B C D E F G H I J K L M N O P Q R S T U V W X Y Z # 

Morningrise Tabs

(ver. 1) Click to play this song!
Slowdive
[Intro]
E/B F#m


[Verse 1]
E/B
I cross the field
                        F#m
And watch the sun go down
E/B
A million people clap
                F#m
It makes me frown


[Chorus 1]
A/E             C#/G#
    Looking 'round
                E/B
I see you slip away
A/E
    You seem more
      C#/G#            E/B
Beautiful than yesterday

E/B F#m


[Verse 2]
E/B
The devil takes
                     F#m
My mind but I don't care
E/B
He gives me all his love
            F#m
He gives me air


[Chorus 2]
A/E

C#/G#             E/B
Don't pay it any mind

A/E

C#/G#               E/B
I'm losing all the time


[Solo]
                                                       A/E
e|----------------------------------------------------------------|
B|--19-19-19-19-17-17-17-17-14-14-14-14-12-12-12-12--5-5---5---5--|
G|-----------------------------------------------------6-6-6-6-6--| (x2)
D|-----------------------------------------------------8-8-8-8-8--|
A|-----------------------------------------------------8-8-8-8-8--|
E|----------------------------------------------------------------|

e|----------------------------------------------------|
B|--14-14-14-14-12-12-12-12-9-9-9-9-7-7-7-7--5-5-5-5--|
G|-------------------------------------------6-6-6-6--|
D|----------------------------------------------------|
A|----------------------------------------------------|
E|----------------------------------------------------|

Bsus4 E/B F#m


[Verse 1]
E/B
I cross the field
                        F#m
And watch the sun go down
E/B
A million people clap
                F#m
It makes me frown


[Chorus 1]
A/E             C#/G#
    Looking 'round
                E/B
I see you slip away
A/E
    You seem more
      C#/G#            E/B
Beautiful than yesterday


[Solo]
                                                       A/E
e|----------------------------------------------------------------|
B|--19-19-19-19-17-17-17-17-14-14-14-14-12-12-12-12--5-5---5---5--|
G|-----------------------------------------------------6-6-6-6-6--| (x2)
D|-----------------------------------------------------8-8-8-8-8--|
A|-----------------------------------------------------8-8-8-8-8--|
E|----------------------------------------------------------------|

e|----------------------------------------------------|
B|--14-14-14-14-12-12-12-12-9-9-9-9-7-7-7-7--5-5-5-5--|
G|-------------------------------------------6-6-6-6--|
D|----------------------------------------------------|
A|----------------------------------------------------|
E|----------------------------------------------------|

Bsus4 E/B F#m


[Outro]
E/B F#m x2

E/B
            
Submit corrections

↑ Back to top | Tablatures and chords for acoustic guitar and electric guitar, ukulele, drums are parodies/interpretations of the original songs. You may use it for private study, scholarship, research or language learning purposes only