» » »

Slow Club - Thinking Drinking Sinking Feeling Tabs

Artists:  A B C D E F G H I J K L M N O P Q R S T U V W X Y Z # 

Thinking Drinking Sinking Feeling Tabs

(ver. 1) Click to play this song!
Slow Club
 Rating:
3.8/5 (5 votes)

 Thinking Drinking Sinking Feeling lessons Tabs too difficult? Try these video lessons and learn fast
 
                Thinking, Drinking, Sinking Feeling – Slow Club

Tuning: Standard
Capo on 3rd fret

This is my first tab and is done by ear so if you find any mistakes please email 
me. Thanks, and enjoy playing this brilliant song! :)

Intro:
e|---------------------------------------------------------------------------|
B|-0-0-0-0-0-0-0-0-0-0-0-0-0-0-0-0-0-0-0-0-0-0-0-0-0-0-0-0-0-0-0-0-0-0-0-0---|
G|---------------------------------------------------------------------------|
D|---------------------------------------------------------------------------|
A|----------------------------4-2--------------------------4-2---------------|
E|0-0-0-0-0-0-0-0-0-0-0-0-0-0----2/4-4-4-4-4-4-2-0-0-0-0-0-0----2/4-4-4-4-4--|

e|---------------------------------------------------------------------------|
B|-0-0-0-0-0-0-0-0-----------------------------------------------------------|
G|---------------------------------------------------------------------------|
D|---------------------------------------------------------------------------|
A|---------------------------------------------------------------------------|
E|4-2-0-0-0-0-0-0------------------------------------------------------------|

Verse riff: (Do this 4 times per verse) "Light will pour....bullies the moon"
e|---------------------------------------------------------------------------|
B|-0-0-0-0-0-0-0-0-0-0-0-0-0-0-0---------------------------------------------|
G|---------------------------------------------------------------------------|
D|---------------------------------------------------------------------------|
A|4-2------------------------------------------------------------------------|
E|---2/4-4-4-4-4-4-2-0-0-0-0-0-0---------------------------------------------|

Chorus:
e|---------0-0-0-0-------------------------0-0-0-0---------------------------|
B|-0-0-0-0---------0-0-0-0-0-0-0-0-0-0-0-0--------0-0-0-0-0-0-0-0-0-0--------|
G|---------------------------------------------------------------------------|
D|4/6/4/2---------4/6/4/2-----------6/4/2--------4/6/4/2---------------------|
A|--------4-4-4-4-------------------------4-4-4-4----------------------------|
E|------------------------0-0-0-0-0----------------------0-0-0-0-0-0---------|

e|---------------------------------------------------------------------------|
B|-0-0-0-0-0-0-0-0-----------------------------------------------------------|
G|---------------------------------------------------------------------------|
D|2-2-2-2--------------------------------------------------------------------|
A|---------------------------------------------------------------------------|
E|--------0-0-0-0------------------------------------------------------------|

Verse
Chorus

Bridge: (Do this riff twice) (1:33 to 1:53 approx.)
e|---------------------------------------------------------------------------|
B|-0-0-0-0-0-0-0-0-0-0-0-0-0-0-0-0-0-0-0-0-0-0-0-0-0-0-0-0-0-0-0-0-----------|
G|---------------------------------------------------------------------------|
D|---------------------------------------------------------------------------|
A|---------------------------------------------------------------------------|
E|0-0-0-0-0-0-0-0-5-5-5-5-5-5-5-5-0-0-0-0-0-0-0-0-2-2-2-2-5-5-5-5------------|
2nd part to bridge: "Thinking, drinking, sinking feeling"
e|---------------------------------------------------------------------------|
B|-0-0-0-0-0-0-0-0-0-0-0-0-0-0-----------------------------------------------|
G|---------------------------------------------------------------------------|
D|4/6/4/2--------------------------------------------------------------------|
A|--------4/2----------------------------------------------------------------|
E|------------4-4/0-0-0-0-0-0------------------------------------------------|

Verse

Extended chorus:(Do this riff 3 times) (2:22 to 2:57)
e|---------0-0-0-0-------------------------0-0-0-0---------------------------|
B|-0-0-0-0---------0-0-0-0-0-0-0-0-0-0-0-0--------0-0-0-0-0-0-0-0-0-0--------|
G|---------------------------------------------------------------------------|
D|4/6/4/2---------4/6/4/2-----------6/4/2--------4/6/4/2---------------------|
A|--------4-4-4-4-------------------------4-4-4-4----------------------------|
E|------------------------0-0-0-0-0----------------------0-0-0-0-0-0---------|

e|---------------------------------------------------------------------------|
B|-0-0-0-0-0-0-0-0-----------------------------------------------------------|
G|---------------------------------------------------------------------------|
D|2-2-2-2--------------------------------------------------------------------|
A|---------------------------------------------------------------------------|
E|--------0-0-0-0------------------------------------------------------------|


Bridge (Except do the riff 3 times instead of 2)
2nd part to bridge
            
Submit corrections


        Thinking Drinking Sinking Feeling lessons Hard to play? Try these video lessons and learn fast Thinking Drinking Sinking Feeling lessons
        
↑ Back to top | Tablatures and chords for acoustic guitar and electric guitar, ukulele, drums are parodies/interpretations of the original songs. You may use it for private study, scholarship, research or language learning purposes only