» » »

Slipknot - Override Bass

Artists:  A B C D E F G H I J K L M N O P Q R S T U V W X Y Z # 

Override Bass

(ver. 1) Click to play this song!
Slipknot
 Rating:
4.3/5 (27 votes)

 Override lessons Tabs too difficult? Try these video lessons and learn fast
 
                
[Intro]

E |-----------------------------------------------------------------------|
B |-----------------------------------------------------------------------|
F#|---------0-------------------------------------------------------------|
B |-222-3-2---3-2-0--333-5-3-3-5-3-5--------------------------------------|(x2)

[Verse]

E |-----------------------------------------------------------------------|
B |-----------------------------------------------------------------------|
F#|---------0-------------------------------------------------------------|
B |-222-3-2---3-2-0--333-5-3-3-5-3-5--------------------------------------|(x8)

E |-----------------------------------------------------------------------|
B |-----------------------------------------------------------------------|
F#|---------0-------------------------------------------------------------|
B |-2-2-3-2---3-2-0--3-3-5-3-3-5-3-5--------------------------------------|(x4)

[Pre chorus]

E |-----------------------------------------------------------------------|
B |-----------------------------------------------------------------------|
F#|-2~-2-2-2-2-2-2-2-2-2-2-2-2-3-3----------------------------------------|
B |-----------------------------------------------------------------------|
                                                                           >(x2)
E |-----------------------------------------------------------------------|
B |-----------------------------------------------------------------------|
F#|-2~-2-2-2-2-2-7~-5-3-5~-3-2-3------------------------------------------|
B |-----------------------------------------------------------------------|

[Chorus]

E |-----------------------------------------------------------------------|
B |-----------------------------------------------------------------------|
F#|-3-3-3-3-3-3-3-3-5-5-5-5-7-7-7-7-2-2-2-2-2-2-2-2-5-5-5-5---------------|
B |---------------------------------------------------------5-5-5-5-------|(x2)

[Verse]

E |-----------------------------------------------------------------------|
B |-----------------------------------------------------------------------|
F#|---------0-------------------------------------------------------------|
B |-222-3-2---3-2-0--333-5-3-3-5-3-5--------------------------------------|(x8)

E |-----------------------------------------------------------------------|
B |-----------------------------------------------------------------------|
F#|---------0-------------------------------------------------------------|
B |-2-2-3-2---3-2-0--3-3-5-3-3-5-3-5--------------------------------------|(x4)

[Pre chorus]

E |-----------------------------------------------------------------------|
B |-----------------------------------------------------------------------|
F#|-2~-2-2-2-2-2-2-2-2-2-2-2-2-3-3----------------------------------------|
B |-----------------------------------------------------------------------|
                                                                           >(x2)
E |-----------------------------------------------------------------------|
B |-----------------------------------------------------------------------|
F#|-2~-2-2-2-2-2-7~-5-3-5~-3-2-3------------------------------------------|
B |-----------------------------------------------------------------------|

[Chorus]

E |-----------------------------------------------------------------------|
B |-----------------------------------------------------------------------|
F#|-3-3-3-3-3-3-3-3-5-5-5-5-7-7-7-7-2-2-2-2-2-2-2-2-5-5-5-5---------------|
B |---------------------------------------------------------5-5-5-5-------|(x2)

[Break]

E |-----------------------------------------------------------------------|
B |-----------------------------------------------------------------------|
F#|-----------------------------------------------------------------------|
B |-2----2-2----2---3-0-2-6-5-1-------------------------------------------|

E |-----------------------------------------------------------------------|
B |-----------------------------------------------------------------------|
F#|---------0h2h3h5---------0h2h3h5---------0h2h3h5-6-5-3---5-3-----------|
B |-0h2h3h5---------0h2h3h5---------0h2h3h5---------------6-----6-3-------|
                                                                           >(x2)
E |-----------------------------------------------------------------------|
B |-------------3h5-------------3h5-------------3h5-5-3-----3-------------|
F#|-------3h5h6-----------3h5h6-----------3h5h6---------6-5---6-5-3-------|
B |-3h5h6-----------3h5h6-----------3h5h6---------------------------------|

[Bridge]

E |-----------------------------------------------------------------------|
B |-----------------------------------------------------------------------|
F#|-----------------------------------------------------------------------|
B |-666---666---666--666-555-666---666---666---101010-555-----------------|(x3)

E |-----------------------------------------------------------------------|
B |-----------------------------------------------------------------------|
F#|-----------------------------------------------------------------------|
B |-666---666---666--666-555-666---666------------------------------------|

E |-----------------------------------------------------------------------|
B |-----------------------------------------------------------------------|
F#|-----------------------------------------------------------------------|
B |-3~--0-1~--6-5-0-------------------------------------------------------|(x8)

E |-----------------------------------------------------------------------|
B |-----------------------------------------------------------------------|
F#|-----------------------------------------------------------------------|
B |-2~--5-3~--6-5-3-------------------------------------------------------|

[Pre chorus]

E |-----------------------------------------------------------------------|
B |-----------------------------------------------------------------------|
F#|-2~-2-2-2-2-2-2-2-2-2-2-2-2-3-3----------------------------------------|
B |-----------------------------------------------------------------------|
                                                                           >(x2)
E |-----------------------------------------------------------------------|
B |-----------------------------------------------------------------------|
F#|-2~-2-2-2-2-2-7~-5-3-5~-3-2-3------------------------------------------|
B |-----------------------------------------------------------------------|

[Chorus]

E |-----------------------------------------------------------------------|
B |-----------------------------------------------------------------------|
F#|-3-3-3-3-3-3-3-3-5-5-5-5-7-7-7-7-2-2-2-2-2-2-2-2-5-5-5-5---------------|
B |---------------------------------------------------------5-5-5-5-------|(x2)

[Break]

E |-----------------------------------------------------------------------|
B |-----------------------------------------------------------------------|
F#|-----------------------------------------------------------------------|
B |-2----2-2--------------------------------------------------------------|

[Outro]

E |-----------------------------------------------------------------------|
B |-----------------------------------------------------------------------|
F#|---------0-------------------------------------------------------------|
B |-222-3-2---3-2-0--333-5-3-3-5-3-5--------------------------------------|(x10)            
Submit corrections


        Override lessons Hard to play? Try these video lessons and learn fast Override lessons
        
↑ Back to top | Tablatures and chords for acoustic guitar and electric guitar, ukulele, drums are parodies/interpretations of the original songs. You may use it for private study, scholarship, research or language learning purposes only