» » »

Slipknot - Me Inside Tabs

Artists:  A B C D E F G H I J K L M N O P Q R S T U V W X Y Z # 

Me Inside Tabs

(ver. 1) Click to play this song!
Slipknot
 Rating:
4.3/5 (27 votes)

 Me Inside lessons Tabs too difficult? Try these video lessons and learn fast
 
                [Verse 1]
(Guitar 1 w/phaser I think)
db|-19------------------------------------------19b
Ab|----21-18----21-18------------19-21-18-19-18----
 E|----------19-------19-16------------------------
 B|------------------------------------------------
Gb|------------------------------------------------
 B|------------------------------------------------

db|---------------------------------------19b|
Ab|19-21-18-19-18----------19-21-18-19-18----|
 E|------------------------------------------|
 B|---------------20b------------------------|
Gb|------------------------------------------|
 B|------------------------------------------|

db|----16------15---------16/17|
Ab|-------15------14------15/16|
 E|-14---------------13---14/15| x8
 B|----------------------------|
Gb|----------------------------|
 B|----------------------------|

(Guitar 2)
db|------------|
Ab|------------|
 E|------------| x16
 B|------------|
Gb|------------|
 B|-3-0-2-3-1-2|
    . . . . . .


[Chorus 1]
(Both Guitars)
db|----------------------------------------------------------|
Ab|-----------3b-3b-3b-3b-3b-3b-3b-3b-3b-3b-3b-3b-3b-3b-3b-3b|
 E|----------------------------------------------------------| x4
 B|----------------------------------------------------------|
Gb|-0h1-0h1--------------------------------------------------|
 B|-0h1-0h1--------------------------------------------------|


[Pre-Verse]
(Guitar 1 ONLY)
db|----16------15---------16/17|
Ab|-------15------14------15/16|
 E|-14---------------13---14/15| x4
 B|----------------------------|
Gb|----------------------------|
 B|----------------------------|


[Verse 2]
(Guitar 1)
db|----16------15---------16/17|
Ab|-------15------14------15/16|
 E|-14---------------13---14/15| x8
 B|----------------------------|
Gb|----------------------------|
 B|----------------------------|


[Verse 2]
(Guitar 1)
               x4            x4
db|------------||------------|
Ab|------------||------------|
 E|------------||------------| 
 B|------------||------------|
Gb|------------||------------|
 B|-3-0-2-3-1-2||-3-0-2-3-1-2|
    . . . . . .


[Chorus 2]
(Both Guitars)
db|-------------------------------------------------|
Ab|-------------------------------------------------|
 E|----------------------------------5/7-7-7-7/8-8-8| x4
 B|-0-----6-5-3-------------0--------X-X-X-X-X-X-X-X|
Gb|-0---0-6-5-3----1h3p1----0--------3/5-5-5-5/6-6-6|
 B|-0---0-6-5-3----1h3p1----0-----------------------|


[Outro]
(Guitar 1)
db|------|
Ab|------|
 E|------| x32
 B|------|
Gb|-0-0-0|
 B|-0-0-0|


[Outro]
(Guitar 2 w/wah and trem. picking)
db|--|
Ab|--|
 E|-7| 
 B|--|
Gb|--|
 B|--|            
Submit corrections


        Me Inside lessons Hard to play? Try these video lessons and learn fast Me Inside lessons
        
↑ Back to top | Tablatures and chords for acoustic guitar and electric guitar, ukulele, drums are parodies/interpretations of the original songs. You may use it for private study, scholarship, research or language learning purposes only