» » »

Slipknot - Eyel E Ss Tabs

Artists:  A B C D E F G H I J K L M N O P Q R S T U V W X Y Z # 

Eyel E Ss Tabs

(ver. 1) Click to play this song!
Slipknot
 Rating:
4/5 (4 votes)

 Eyel E Ss lessons Tabs too difficult? Try these video lessons and learn fast
 
                Track No.#: 3

    TUNING:(B,F#,B,E,G#,C#)
    KEY:   P.M.=PALM MUTING 
           %=REST 
           bf=BEND FULL STEP  
           P.H=PINCH HARMONIC  
           r=RELEASE BEND


      Intro 1: Guitar 1 (Mick) (all downstrokes) 
                                                            (10x)
  C#|-12-12-12--12--12--12-12-12-|-12-12-12-12-12-12-12-12-|
  G#|-17-17-17--16--17--16-16-16-|-16-16-16-16-16-16-16-16-|
   E|----------------------------|-------------------------| 
   B|----------------------------|-------------------------|
  F#|----------------------------|-------------------------|
   B|----------------------------|-------------------------|

       
      Intro 1: Guitar 2  (Jim)

    P.M....           P.M...    (2x)    P.M....          P.M...   P.M.     (6x)
  C#|--------------------------|       |----------------------------------|
  G#|--------------------------|       |----------------------------------|
   E|--------------------------|       |----------------------------------|      
   B|-----------------------%--|       |--------------------------------1-|
  F#|---------2---1------------|       |---------2---1----------2-----1---| 
   B|-0-0-0-3---3---2--0-0-----|       |-0-0-0-3---3---2--0-0-0---0-0-----|

       
      Intro And Chorus: 1,2,3   
      Guitars 1 and 2 (Mick & Jim)
                                         (4x)
  C#|-----------------|-----------------|
  G#|-----------------|-----------------|
   E|-----------------|-----------------|
   B|-----------------|-----------------|
  F#|-0-0-0-0-3-0-2-3-|-0-0-5-6-0-0-6-8-| 
   B|-0-0-0-0-3-0-2-3-|-0-0-5-6-0-0-6-8-|

   
      Verse: 1,2,3
      Guitars 1 and 2 (Mick & Jim)
                           (4x)
  C#|---------------------|
  G#|---------------------|
   E|---------------------|
   B|------------------%--|
  F#|-0-0-0-0-3-0-2-3-----| 
   B|-0-0-0-0-3-0-2-3-----|


      Bridge: 1,2
      Guitars 1 and 2 (Mick & Jim)
                                                          (4x)
  C#|--------------------------|-------------------------|
  G#|--------------------------|-------------------------|
   E|-4--4--4------4--4--4--4--|-4--4--4-----4--4--4--4--|
   B|-3--3--3--%---3--3--3--3--|-3--3--3--%--3--3--3--3--| 
  F#|-2--2--2------2--2--2--2--|-2--2--2-----2--2--2--2--|
   B|--------------------------|-------------------------|


      Interlude 
      Guitar 1 (Mick)                                  Guitar 2 (Jim)  2nd Time

           *                            (2x)           
  C#|----------------------------------|      |--------------------------------|
  G#|----------------------------------|      |--------------------------------|
   E|----------------------------------|      |--------------------------------|
   B|--------------------------%-------|      |------------------------%-------|
  F#|----------------------------------|      |------------------0-0-1---0-0-1-|
   B|-0-0-0-bf3r----(3)--0-0-1---0-0-1-|      |------------------0-0-1---0-0-1-|
   
   * Bend the 3 one full step in advance then slowly release it. This IS the way 
     SlipKnoT plays this riff.


      Interlude 2
      Guitars 1 & 2 (Mick & Jim)

  C#|----------------------------------|    (The 4rth time Mick steps on some ***ed
  G#|----------------------------------|     up pedal he's got and bends the *** out
   E|----------------------------------|     the note.)
   B|--------------------------%-------|
  F#|-0-0-0--------------0-0-1---0-0-1-|
   B|-0-0-0-bf3r----(3)--0-0-1---0-0-1-|        


      Interlude 3
      Guitar 1 (Mick)       
                                                            (12x)
  C#|-12-12-12--12--12--12-12-12-|-12-12-12-12-12-12-12-12-|
  G#|-17-17-17--16--17--16-16-16-|-16-16-16-16-16-16-16-16-|
   E|----------------------------|-------------------------|
   B|----------------------------|-------------------------|
  F#|----------------------------|-------------------------|
   B|----------------------------|-------------------------|


      Interlude 3
      Guitar 2 (Jim)

     (Let Ring Throughout)                                                    (4x)
  C#|------------------|-------------------|------------------|--------------|
  G#|------------------|-------------------|------------------|--------------|
   E|------------------|-------------------|------------------|--------------|
   B|------------------|-------------------|------------------|--------------|
  F#|-0----------------|-4-----------------|-1-------2--------|--------------|
   B|-0----------------|-4-----------------|-1-------2--------|--------------|


      Interlude 3
      Guitar 2 (Jim)

      P.M. Throughut Then Slowly Let Off On The Seond Time                   (2x)
  C#|-----------------|-----------------|-----------------|-----------------|
  G#|-----------------|-----------------|-----------------|-----------------|
   E|-----------------|-----------------|-----------------|-----------------|
   B|-----------------|-----------------|-----------------|-----------------|
  F#|-----------------|-----------------|-----------------|-----------------|
   B|-0-0-0-0-0-0-0-0-|-4-4-4-4-4-4-4-4-|-1-1-1-1-2-2-2-2-|-2-2-2-2-2-2-2-2-|


      MUTHA***ER!!! Part
                                 P.M.    P.M.    P.M.   
  C#|----------------------------------|------------------|
  G#|----------------------------------|------------------|
   E|----------------------------------|------------------|     
   B|--------------------------%-------|----------------%-|
  F#|-0-0-0--------------0-0-1---0-1---|-0-0-1---0-0-1----| ***A!!!!!!!!!!!!!!
   B|-0-0-0-bf3r----(3)--0-0-1---0-1---|-0-0-1---0-0-1----|


      Then you do this riff at HALF-TIME feel
      and this little lick is somewhere in there.

                              P.H.(full step)
  C#|------------------------------------|
  G#|------------------------------------|
   E|------------------------------------|                                
   B|-------------------------1b---------|
  F#|-0-0-0--------------0-0------0-0-1--|
   B|-0-0-0-bf3r----(3)--0-0------0-0-1--|

  On the Album there really is'nt that Pinch Harmonic.
 In a GUITAR ONE magazine Jim said that their Producer Ross Robinson punched Mick's
 guitar and that sound came out. It sounded cool so they left in on the record. I 
 just thought I'd find something similar to that squeal that you can actually play.
            
Submit corrections


        Eyel E Ss lessons Hard to play? Try these video lessons and learn fast Eyel E Ss lessons
        
↑ Back to top | Tablatures and chords for acoustic guitar and electric guitar, ukulele, drums are parodies/interpretations of the original songs. You may use it for private study, scholarship, research or language learning purposes only