Home » S » Sleeping At Last »

Sleeping At Last - Light Tabs

Artists:  A B C D E F G H I J K L M N O P Q R S T U V W X Y Z # 

Light Tabs

(ver. 1) Click to play this song!
Sleeping At Last
Tuning: Standard

e|-5--------------3--------------3--------------3----0-----------------------| x2
B|------1----0---------0----1---------0----1---------------------------------|
G|---------------------------------------------------------------------------|
D|---------------------------------------------------------------------------|
A|---------------------------------------------------------------------------|
E|---------------------------------------------------------------------------|

e|-5----3---------0----3-----------------------------------------------------| x6
B|-----------3---------------------------------------------------------------|
G|---------------------------------------------------------------------------|
D|---------------------------------------------------------------------------|
A|---------------------------------------------------------------------------|
E|---------------------------------------------------------------------------|

After you play that the sixth time, end it with this:

e|------1----0---------------------------------------------------------------|
B|-1--------------3----1-----------------------------------------------------|
G|---------------------------------------------------------------------------|
D|---------------------------------------------------------------------------|
A|---------------------------------------------------------------------------|
E|---------------------------------------------------------------------------|            
Submit corrections

↑ Back to top | Tablatures and chords for acoustic guitar and electric guitar, ukulele, drums are parodies/interpretations of the original songs. You may use it for private study, scholarship, research or language learning purposes only