Home » S » Slayer »

Slayer - Repentless Tabs

Artists:  A B C D E F G H I J K L M N O P Q R S T U V W X Y Z # 

Repentless Tabs

(ver. 1) Click to play this song!
Slayer
Tuning: Eb [Half Step Down]


[Intro]

eb|------------------------------------------|
Bb|------------------------------------------|
Gb|------------------------------------------| 
Db|------------------------------------------|
Ab|--------7---8---10---8p7--5-----7---8-----|
Eb|—-0-0-0---0---0----0---------0--5---6-----|(x2)
     . . .   .   .    .         .
eb|------------------------------------------|
Bb|------------------------------------------|
Gb|------------------------------------------|
Db|------------------------------------------|
Ab|--------7---8---10---8p7--5-----8---(8)---|
Eb|—-0-0-0---0---0----0---------0—-6---(6)---|
     . . .   .   .    .         .

eb|--------------------------------------------------------------------------|
Bb|--------------------------------------------------------------------------|
Gb|--------------------------------------------------------------------------|
Db|--------------8--7--(7)------12--11--(11)------8--7-----------------------|
Ab|--7--(7)--8---6--5--(5)--8---10--9---( 9)--8---6--5---5h6p5-----5---------|
Eb|—-5--(5)--6--------------6-----------------6----------------0-6---7-6-5---|
                                                               . .   . . .
eb|------------------------------------------------------------------------------|
Bb|------------------------------------------------------------------------------|
Gb|------------------------------------------------------------------------------|
Db|--------------8--7--(7)------12--11--(11)------8--7---------------------------|
Ab|--7--(7)--8---6--5--(5)--8---10--9---( 9)--8---6--5---*5h*6p*5-----*5---------|
Eb|—-5--(5)--6--------------6-----------------6-------------------0-6----7-6-5---|
                                                                  . .    . . .
eb|-----------------------------------------------------------------------|
Bb|-----------------------------------------------------------------------|
Gb|-----------------------------------------------------------------------|
Db|--------------8--7--(7)------5--4--(4)------8--7-----------------------|
Ab|--7--(7)--8---6--5--(5)--8---5--4--(4)--8---6--5---5h6p5---5p4---------|
Eb|—-5--(5)--6--------------6---3--2--(2)--6----------------0-----5-4-3---|
                                                            .     . . .

[Verse 1]

eb|------------------------------------------------------------------------------|
Bb|------------------------------------------------------------------------------|
Gb|------------------------------------------------------------------------------|
Db|------------------------------------------------------------------------------|
Ab|------------------------------------------------------------------------------|
Eb|—-0h2-2-2-2-2-2-2-2--2h3-3-3-3-3-3-3-3--0h2-2-2-2-2-2-2-2--2-2-2-2-2-2-2-2----|
     . . . . . . . . .  . . . . . . . . .  . . . . . . . . .  . . . . . . . .
eb|------------------------------------------------------------------------------|
Bb|------------------------------------------------------------------------------|
Gb|------------------------------------------------------------------------------|
Db|------------------------------------------------------------------------------|
Ab|-----------------------------------------------------------------------5------|
Eb|--0h2-2-2-2-2-2-2-2--2h3-3-3-3-3-3-3-3--0h2-2-2-2-2-2-2-2--2-2-2-2-----3------|
     . . . . . . . . .  . . . . . . . . .  . . . . . . . . .  . . . .

eb|------------------------------------------------------------------------------|
Bb|------------------------------------------------------------------------------|
Gb|------------------------------------------------------------------------------|
Db|------------------------------------------------------------------------------|
Ab|------------------------------------------------------------------------------|
Eb|-—0h2-2-2-2-2-2-2-2--2h3-3-3-3-3-3-3-3--0h2-2-2-2-2-2-2-2--2-2-2-2-2-2-2-2----|
     . . . . . . . . .  . . . . . . . . .  . . . . . . . . .  . . . . . . . .
eb|------------------------------------------------------------------------------|
Bb|------------------------------------------------------------------------------|
Gb|------------------------------------------------------------------------------|
Db|------------------------------------------------------------------------------|
Ab|------------------------------------------------------------2-----------------|
Eb|-—0h2-2-2-2-2-2-2-2--2h3-3-3-3-3-3-3-3--0h2-2-2-2-2-2-2-2-------3---2---3-----|
     . . . . . . . . .  . . . . . . . . .  . . . . . . . . .       .   .   .

eb|------------------------------------------------------------------------------|
Bb|------------------------------------------------------------------------------|
Gb|------------------------------------------------------------------------------|
Db|------------------------------------------------------------------------------|
Ab|------------------------------------------------------------------------------|
Eb|—-0h2-2-2-2-2-2-2-2--2h3-3-3-3-3-3-3-3--0h2-2-2-2-2-2-2-2--2-2-2-2-2-2-2-2----|
     . . . . . . . . .  . . . . . . . . .  . . . . . . . . .  . . . . . . . .
eb|------------------------------------------------------------------------------|
Bb|------------------------------------------------------------------------------|
Gb|------------------------------------------------------------------------------|
Db|------------------------------------------------------------------------------|
Ab|--------------------------------------------------------------7-----5---------|
Eb|—-0h2-2-2-2-2-2-2-2--2h3-3-3-3-3-3-3-3--3h2-2-2-2-2-2-2-2-----5-----3---------|
     . . . . . . . . .  . . . . . . . . .  . . . . . . . . .

eb|------------------------------------------------------------------------------|
Bb|------------------------------------------------------------------------------|
Gb|------------------------------------------------------------------------------|
Db|------------------------------------------------------------------------------|
Ab|------------------------------------------------------------------------------|
Eb|-—0h2-2-2-2-2-2-2-2--2h3-3-3-3-3-3-3-3--0h2-2-2-2-2-2-2-2--2-2-2-2-2-2-2-2----|
     . . . . . . . . .  . . . . . . . . .  . . . . . . . . .  . . . . . . . .
eb|------------------------------------------------------------------------------|
Bb|------------------------------------------------------------------------------|
Gb|------------------------------------------------------------------------------|
Db|------------------------------------------------------------------------------|
Ab|-----------------------------------------2--------------2---------------------|
Eb|--0h2-2-2-2-2-2-2-2--2h3-3-3-3-3-3-3-3-------3---2---3-----3---2---0----------|
     . . . . . . . . .  . . . . . . . . .       .   .   .     .   .   . 


[Chorus 1]

eb|-----------------------------------------------------|
Bb|-----------------------------------------------------|
Gb|-----------------------------------------------------|
Db|-----------------------------------------------------|
Ab|--2--------------------7-----10-----5-----8-----7----|
Eb|--0----0---0---0---0-------0-----0-----0-----0-------|
          .   .   .   .       .     .     .     .   
eb|-----------------------------------------------------|
Bb|-----------------------------------------------------|
Gb|-----------------------------------------------------|
Db|-----------------------------------------------------|
Ab|--2--------------------7-----10-----7-----8-----5----|
Eb|--0----0---0---0---0-------0-----0-----0-----0-------|
          .   .   .   .       .     .     .     .
eb|-----------------------------------------------------|
Bb|-----------------------------------------------------|
Gb|-----------------------------------------------------|
Db|-----------------------------------------------------|
Ab|--2--------------------7-----10------5----10----8----|
Eb|--0----0---0---0---0-------0-----0-----0-----0-------|
          .   .   .   .       .     .     .     .
eb|-----------------------------------------------------|
Bb|-----------------------------------------------------|
Gb|-----------------------------------------------------|
Db|-----------------------------------------------------|
Ab|--2--------------------7-----10-----8--------8-------|
Eb|--0----0---0---0---0-------0-----0-----0-----6-------|
          .   .   .   .       .     .     .


[Verse 2]

eb|------------------------------------------------------------------------------|
Bb|------------------------------------------------------------------------------|
Gb|------------------------------------------------------------------------------|
Db|------------------------------------------------------------------------------|
Ab|------------------------------------------------------------------------------|
Eb|—-0h2-2-2-2-2-2-2-2--2h3-3-3-3-3-3-3-3--0h2-2-2-2-2-2-2-2--2-2-2-2-2-2-2-2----|
     . . . . . . . . .  . . . . . . . . .  . . . . . . . . .  . . . . . . . .
eb|------------------------------------------------------------------------------|
Bb|------------------------------------------------------------------------------|
Gb|------------------------------------------------------------------------------|
Db|------------------------------------------------------------------------------|
Ab|-----------------------------------------------------------------------5------|
Eb|--0h2-2-2-2-2-2-2-2--2h3-3-3-3-3-3-3-3--0h2-2-2-2-2-2-2-2--2-2-2-2-----3------|
     . . . . . . . . .  . . . . . . . . .  . . . . . . . . .  . . . .

eb|------------------------------------------------------------------------------|
Bb|------------------------------------------------------------------------------|
Gb|------------------------------------------------------------------------------|
Db|------------------------------------------------------------------------------|
Ab|------------------------------------------------------------------------------|
Eb|-—0h2-2-2-2-2-2-2-2--2h3-3-3-3-3-3-3-3--0h2-2-2-2-2-2-2-2--2-2-2-2-2-2-2-2----|
     . . . . . . . . .  . . . . . . . . .  . . . . . . . . .  . . . . . . . .
eb|------------------------------------------------------------------------------|
Bb|------------------------------------------------------------------------------|
Gb|------------------------------------------------------------------------------|
Db|------------------------------------------------------------------------------|
Ab|------------------------------------------------------------2-----------------|
Eb|-—0h2-2-2-2-2-2-2-2--2h3-3-3-3-3-3-3-3--0h2-2-2-2-2-2-2-2-------3---2---3-----|
     . . . . . . . . .  . . . . . . . . .  . . . . . . . . .       .   .   .

eb|------------------------------------------------------------------------------|
Bb|------------------------------------------------------------------------------|
Gb|------------------------------------------------------------------------------|
Db|------------------------------------------------------------------------------|
Ab|------------------------------------------------------------------------------|
Eb|—-0h2-2-2-2-2-2-2-2--2h3-3-3-3-3-3-3-3--0h2-2-2-2-2-2-2-2--2-2-2-2-2-2-2-2----|
     . . . . . . . . .  . . . . . . . . .  . . . . . . . . .  . . . . . . . .
eb|------------------------------------------------------------------------------|
Bb|------------------------------------------------------------------------------|
Gb|------------------------------------------------------------------------------|
Db|------------------------------------------------------------------------------|
Ab|--------------------------------------------------------------7-----5---------|
Eb|—-0h2-2-2-2-2-2-2-2--2h3-3-3-3-3-3-3-3--3h2-2-2-2-2-2-2-2-----5-----3---------|
     . . . . . . . . .  . . . . . . . . .  . . . . . . . . .

eb|------------------------------------------------------------------------------|
Bb|------------------------------------------------------------------------------|
Gb|------------------------------------------------------------------------------|
Db|------------------------------------------------------------------------------|
Ab|------------------------------------------------------------------------------|
Eb|-—0h2-2-2-2-2-2-2-2--2h3-3-3-3-3-3-3-3--0h2-2-2-2-2-2-2-2--2-2-2-2-2-2-2-2----|
     . . . . . . . . .  . . . . . . . . .  . . . . . . . . .  . . . . . . . .
eb|------------------------------------------------------------------------------|
Bb|------------------------------------------------------------------------------|
Gb|------------------------------------------------------------------------------|
Db|------------------------------------------------------------------------------|
Ab|-----------------------------------------2--------------2---------------------|
Eb|--0h2-2-2-2-2-2-2-2--2h3-3-3-3-3-3-3-3-------3---2---3-----3---2---0----------|
     . . . . . . . . .  . . . . . . . . .       .   .   .     .   .   . 


[Chorus 2]

eb|-----------------------------------------------------|
Bb|-----------------------------------------------------|
Gb|-----------------------------------------------------|
Db|-----------------------------------------------------|
Ab|--2--------------------7-----10-----5-----8-----7----|
Eb|--0----0---0---0---0-------0-----0-----0-----0-------|
          .   .   .   .       .     .     .     .   
eb|-----------------------------------------------------|
Bb|-----------------------------------------------------|
Gb|-----------------------------------------------------|
Db|-----------------------------------------------------|
Ab|--2--------------------7-----10-----7-----8-----5----|
Eb|--0----0---0---0---0-------0-----0-----0-----0-------|
          .   .   .   .       .     .     .     .
eb|-----------------------------------------------------|
Bb|-----------------------------------------------------|
Gb|-----------------------------------------------------|
Db|-----------------------------------------------------|
Ab|--2--------------------7-----10------5----10----8----|
Eb|--0----0---0---0---0-------0-----0-----0-----0-------|
          .   .   .   .       .     .     .     .
eb|-----------------------------------------------------|
Bb|-----------------------------------------------------|
Gb|-----------------------------------------------------|
Db|-----------------------------------------------------|
Ab|--2--------------------7-----10-----8--------8~------|
Eb|--0----0---0---0---0-------0-----0-----0-----6~------|
          .   .   .   .       .     .     .


[Rhythm Behind Pre-Solo]

eb|---------------???------------------------------------------------------------|
Bb|------------???---------------------------------------------------------------|
Gb|---------???------------------------------------------------------------------|
Db|------???---------8--7--(7)------12--11--(11)------8--7-----------------------|
Ab|--?-??7--(7)--8---6--5--(5)--8---10---9--( 9)--8---6--5---5h6p5---5p4---------|
Eb|—-?-??5--(5)--6--------------6-----------------6----------------0-----5-4-3---|
  |                                                                .     . . .   |
  |                                                                              |
eb|------------------???-----------------------------------------?Dive?-?--------|
Bb|---------------???--------------------------------------------/?----?---------|
Gb|------------???----------------------------------------------/-?---?----------|
Db|---------???------6~-5~----------10~-8~------------8--7"8-*0/--------------?--|
Ab|--/13\7~------8~-------------8~----------------8~-----------------------??--?-|
Eb|------???------------------------------------------------------?--------------|


eb|------------------------------------------------------------------------------|
Bb|------------------------------------------------------------------------------|
Gb|------------------------------------------------------------------------------|
Db|---------------------8--7--(7)------5--4--(4)------8--7-----------------------|
Ab|---------7--(7)--8---6--5--(5)--8---5--4--(4)--8---6--5---5h6p5---5p4---------|
Eb|—--------5--(5)--6--------------6---3--2--(2)--6----------------0-----5-4-3---|
  |                                                                .     . . .   |
  |                                                                              |
eb|------------------------------------------------------------?---------------??|
Bb|--------------------------------------------------------------?---?-----------|
Gb|------------------------------------12-------------8--7"8--7/-?--?------------|
Db|----------------------8~-7~-------------9~-----------------------------?---?--|
Ab|---------7~------8~-------------8~-------------8~----------------------?----?-|
Eb|---------------------------------------------------------------------???------|


[Rhythm Behind Solo] (x2)

eb|-----------------------------------------------------------|
Bb|-----------------------------------------------------------|
Gb|-----------------------------------------------------------| 
Db|-----------------------------------------------------------|
Ab|-----------------------------------------------------------|
Eb|--0h2-2-2-2-2-2-2-2--0h2-2-2--0h2-2-2-2-2-2-2-2--0h2-2-2---|
     . . . . . . . . .  . . . .  . . . . . . . . .  . . . .
eb|-----------------------------------------------------------|
Bb|-----------------------------------------------------------|
Gb|-----------------------------------------------------------| 
Db|-----------------------------------------------------------|
Ab|-----------------------------------------------------------|
Eb|--0h3-3-3-3-3-3-3-3--0h2-2-2--0h2-2-2-2-2-2-2-2--0h2-2-2---|
     . . . . . . . . .  . . . .  . . . . . . . . .  . . . .


[Second Part Behind Solo] (x2)

eb|-----------------------------------------------------------|
Bb|-----------------------------------------------------------|
Gb|-----------------------------------------------------------|
Db|-----------------------------------------------------------|
Ab|-----------------------------------------------------------|
Eb|--5h7-7-7-7-7-7-7-7--5h7-7-7--5h7-7-7-7-7-7-7-7--5h7-7-7---|
     . . . . . . . . .  . . . .  . . . . . . . . .  . . . .
eb|-----------------------------------------------------------|
Bb|-----------------------------------------------------------|
Gb|-----------------------------------------------------------|
Db|-----------------------------------------------------------|
Ab|-----------------------------------------------------------|
Eb|--5h8-8-8-8-8-8-8-8--5h7-7-7--5h7-7-7-7-7-7-7-7--5h7-7-7---|
     . . . . . . . . .  . . . .  . . . . . . . . .  . . . .


eb|-----------------------------------------------------------|
Bb|-----------------------------------------------------------|
Gb|-----------------------------------------------------------|
Db|-----------------------------------------------------------|
Ab|-----------------------------------------------------------|
Eb|--0h2-2-2-2-2-2-2-2--0h2-2-2--0h2-2-2-2-2-2-2-2--0h2-2-2---|
     . . . . . . . . .  . . . .  . . . . . . . . .  . . . .

eb|-----------------------------------------------------------|
Bb|-----------------------------------------------------------|
Gb|-----------------------------------------------------------|
Db|-----------------------------------------------------------|
Ab|-----------------------------------------------------------|
Eb|--0h3-3-3-3-3-3-3-3--0h2-2-2--0h2-2-2-2-2-2-2-2--0h2-2-2---|
     . . . . . . . . .  . . . .  . . . . . . . . .  . . . .


[After Solo]

eb|--------------------------------------|
Bb|--------------------------------------|
Gb|--------------------------------------|
Db|--------------------------------------|
Ab|--------8---7---8---10---8----5---8---|
Eb|-—0-0-0---0---0---0----0---0------6---|
     . . .   .   .   .    .   .

eb|--------------------------------------|
Bb|--------------------------------------|
Gb|--------------------------------------|
Db|--------------------------------------|
Ab|--------8---7---8---10---8----5---8---|
Eb|—-0-0-0---0---0---0----0---0------6---|
     . . .   .   .   .    .   .

eb|--------------------------------------|
Bb|--------------------------------------|
Gb|--------------------------------------|
Db|--------------------------------------|
Ab|--------8---7---8---12---10---8---5---|
Eb|-—0-0-0---0---0---0----0----0---0-----|
     . . .   .   .   .    .    .   .

eb|--------------------------------------|
Bb|--------------------------------------|
Gb|--------------------------------------|
Db|--------------------------------------|
Ab|--------8---7---8---10---7---8p7--8---|
Eb|-—0-0-0---0---0---0----0---0------6---|
     . . .   .   .   .    .   .


[Verse 3]

eb|------------------------------------------------------------------------------|
Bb|------------------------------------------------------------------------------|
Gb|------------------------------------------------------------------------------|
Db|------------------------------------------------------------------------------|
Ab|------------------------------------------------------------------------------|
Eb|—-0h2-2-2-2-2-2-2-2--2h3-3-3-3-3-3-3-3--0h2-2-2-2-2-2-2-2--2-2-2-2-2-2-2-2----|
     . . . . . . . . .  . . . . . . . . .  . . . . . . . . .  . . . . . . . .
eb|------------------------------------------------------------------------------|
Bb|------------------------------------------------------------------------------|
Gb|------------------------------------------------------------------------------|
Db|------------------------------------------------------------------------------|
Ab|-----------------------------------------------------------------------5------|
Eb|--0h2-2-2-2-2-2-2-2--2h3-3-3-3-3-3-3-3--0h2-2-2-2-2-2-2-2--2-2-2-2-----3------|
     . . . . . . . . .  . . . . . . . . .  . . . . . . . . .  . . . .   
eb|------------------------------------------------------------------------------|
Bb|------------------------------------------------------------------------------|
Gb|------------------------------------------------------------------------------|
Db|------------------------------------------------------------------------------|
Ab|------------------------------------------------------------------------------|
Eb|—-0h2-2-2-2-2-2-2-2--2h3-3-3-3-3-3-3-3--0h2-2-2-2-2-2-2-2--2-2-2-2-2-2-2-2----|
     . . . . . . . . .  . . . . . . . . .  . . . . . . . . .  . . . . . . . .
eb|------------------------------------------------------------------------------|
Bb|------------------------------------------------------------------------------|
Gb|------------------------------------------------------------------------------|
Db|------------------------------------------------------------------------------|
Ab|-----------------------------------------------------------2------------------|
Eb|-—0h2-2-2-2-2-2-2-2--2h3-3-3-3-3-3-3-3--0h2-2-2-2-2-2-2-2-----3---2---3-------|
     . . . . . . . . .  . . . . . . . . .  . . . . . . . . .     .   .   .

eb|------------------------------------------------------------------------------|
Bb|------------------------------------------------------------------------------|
Gb|------------------------------------------------------------------------------|
Db|------------------------------------------------------------------------------|
Ab|------------------------------------------------------------------------------|
Eb|—-0h2-2-2-2-2-2-2-2--2h3-3-3-3-3-3-3-3--0h2-2-2-2-2-2-2-2--2-2-2-2-2-2-2-2----|
     . . . . . . . . .  . . . . . . . . .  . . . . . . . . .  . . . . . . . .

eb|------------------------------------------------------------------------------|---------|
Bb|------------------------------------------------------------------------------|---------|
Gb|------------------------------------------------------------------------------|---------|
Db|------------------------------------------------------------------------------|---------|
Ab|--------------------------------------------------------------7-----5---------|----4----|
Eb|--0h2-2-2-2-2-2-2-2--2h3-3-3-3-3-3-3-3--0h2-2-2-2-2-2-2-2-----5-----3---------|----2----|
     . . . . . . . . .  . . . . . . . . .  . . . . . . . . .

    "WE'RE KILLING OURSELVES A LITTLE MORE EVERY DAY!"
eb|------------------------------------------|----------------------------------|
Bb|------------------------------------------|----------------------------------|
Gb|------------------------------------------|----------------------------------|
Db|------------------------------------------|----------------------------------|
Ab|------------------------------------------|---2---------------2--------------|
Eb|------------------------------------------|-------3---2---3------3---2---0---|
                                                     .   .   .      .   .   .


[Chorus 3]

eb|-----------------------------------------------------|
Bb|-----------------------------------------------------|
Gb|-----------------------------------------------------|
Db|-----------------------------------------------------|
Ab|--2--------------------7-----10-----5-----8-----7----|
Eb|--0----0---0---0---0-------0-----0-----0-----0-------|
          .   .   .   .       .     .     .     .   
eb|-----------------------------------------------------|
Bb|-----------------------------------------------------|
Gb|-----------------------------------------------------|
Db|-----------------------------------------------------|
Ab|--2--------------------7-----10-----7-----8-----5----|
Eb|--0----0---0---0---0-------0-----0-----0-----0-------|
          .   .   .   .       .     .     .     .
eb|-----------------------------------------------------|
Bb|-----------------------------------------------------|
Gb|-----------------------------------------------------|
Db|-----------------------------------------------------|
Ab|--2--------------------7-----10------5----10----8----|
Eb|--0----0---0---0---0-------0-----0-----0-----0-------|
          .   .   .   .       .     .     .     .
eb|-----------------------------------------------------|
Bb|-----------------------------------------------------|
Gb|-----------------------------------------------------|
Db|-----------------------------------------------------|
Ab|--2--------------------7-----10-----8--------8~------|
Eb|--0----0---0---0---0-------0-----0-----0-----6~------|
          .   .   .   .       .     .     .

eb|----------------------------------------------------------------------------------|
Bb|----------------------------------------------------------------------------------|
Gb|----------------------------------------------------------------------------------|
Db|---------------------8--7--(7)------5--4--(4)------8--7--(7)----------------------|
Ab|---------7--(7)--8---6--5--(5)--8---5--4--(4)--8---6--5--(5)--5p6p5---5p4---------|
Eb|—--------5--(5)--6--------------6---3--2--(2)--6--------------------0-----5-4-3---|
  |                                                                    .     . . .   |
  |                                                                                  |
eb|----------------------------------------------------------------?-Dive----------??|
Bb|-----------------------------------------------------------------/?---?-----------|
Gb|------------------------------------------??-------8--7"8-----*0/-?--?------------|
Db|----------------------8~-7~----------10-8----------------------------------?---?--|
Ab|---------7~------8~-------------8~-------------8~--------------------------?----?-|
Eb|-------------------------------------------------------------------------???------|

eb|----------------------------------------------------------------------------------|-------------------|
Bb|----------------------------------------------------------------------------------|-------------------|
Gb|----------------------------------------------------------------------------------|-------------------|
Db|---------------------8--7--(7)------5--4--(4)------8--7--(7-----------------------|-------------------|
Ab|---------7--(7)--8---6--5--(5)--8---5--4--(4)--8---6--5--(5)--5p6p5---5p4---------|--3h4p3---3--------|
Eb|—--------5--(5)--6--------------6---3--2--(2)--6--------------------0-----5-4-3---|--------4---3-2-1--|
  |                                                                    .     . . .   |
  |                                                                                  |
eb|------------------------------------14b14-~------------------?14\---------------??|-------------------|
Bb|--------------------------------6/-----14b~--------11-10"11----?------------------|-------------------|
Gb|------------------------------------------??--/10--------------?------------------|-------------------|
Db|----------------------8~-7~----------?-?-----------------------------------?---?--|-------------------|
Ab|---------7~------8~-------------??-----------------------------------------?----?-|-------------------|
Eb|-------------------------------------------------------------------------???------|-------------------|


[Outro]

eb|-----------------------------------------|
Bb|-----------------------------------------|
Gb|-----------------------------------------|  
Db|-----------------------------------------|
Ab|--------7---8---10---8p7--5-----7---8----|
Eb|-—0-0-0---0---0----0---------0--5---6----|(x2)
     . . .   .   .    .         .

eb|-----------------------------------------|---------|
Bb|-----------------------------------------|---------|
Gb|-----------------------------------------|---------|
Db|-----------------------------------------|---------|
Ab|--------7---8---10---8p7--5-----8---7----|---(7)/--|
Eb|-—0-0-0---0---0----0---------0—-6---5----|---(5)/--|
     . . .   .   .    .         .            
Submit corrections

↑ Back to top | Tablatures and chords for acoustic guitar and electric guitar, ukulele, drums are parodies/interpretations of the original songs. You may use it for private study, scholarship, research or language learning purposes only