» » »

Slayer - Delusions Of Saviour Tabs

Artists:  A B C D E F G H I J K L M N O P Q R S T U V W X Y Z # 

Delusions Of Saviour Tabs

(ver. 1) Click to play this song!
Slayer
 Rating:
3/5 (30 votes)

 Delusions Of Saviour  lessons Tabs too difficult? Try these video lessons and learn fast
 
                tune 1 step down


                                               
eb:----------------------------------------------------|
Bb:----------------------------------------------------|
Gb:----------------------------------------------------|
Db:---0-2-3-2--3/5--3--2-3-2----0-2-3-2--3/5--3--2-3-2-|
Ab:----------------------------------------------------|
Eb:-0-------------------------0------------------------|

:------------------------------------------------|
:------------------------------------------------|
:------------------------------------------------|
:---0-2-3-2--3/5--3--2-3-2-----0-2-3-2--3/5--3-3-|
:------------------------------------------------|
:-0-------------------------0--------------------|

  gt1
:----------------------------------------------------|
:----------------------------------------------------|
:----------------------------------------------------|
:---0-2-3-2--3/5--3--2-3-2----0-2-3-2--3/5--3--2-3-2-|
:----------------------------------------------------|
:-0-------------------------0------------------------|
  gt2
:----------------------------------------------|
:----------------------------------------------|
:----------------------------------------------|
:-9--------------------------------------------|
:-7--------------------------------------------|
:-0--------------------------------------------|

  gt1
:--------------------------------------------------|
:--------------------------------------------------|
:--------------------------------------------------|
:---0-2-3-2--3/5--3--2-3-2-----0-2-3-2--3/5--3-3nh-|
:--------------------------------------------------|
:-0-------------------------0----------------------|
  gt2
:----------------------------------------------|
:----------------------------------------------|
:----------------------------------------------|
:-9--------------------------------------------|
:-7--------------------------------------------|
:-0--------------------------------------------|


:----------------------------------------------------------|
:----------------------------------------------------------|
:------------------------------------------------------7-9-|
:-7/9--9-9--9-9-9--9-9--10-9-10--7/9--9-9--9-9-9--9-9------|
:------------------------------------------------------5-7-|
:-5/7--7-7--7-7-7--7-7--8--7-8---5/7--7-7--7-7-7--7-7------|

:----------------------------------------------------------|
:----------------------------------------------------------|
:------------------------------------------------------7-5-|
:-7/9--9-9--9-9-9--9-9--10-9-10--7/9--9-9--9-9-9--9-9------|
:------------------------------------------------------5-3-|
:-5/7--7-7--7-7-7--7-7--8--7-8---5/7--7-7--7-7-7--7-7------|

:-----------------------------------------------------------|
:-----------------------------------------------------------|
:------------------------------------------------9--8-7-----|
:------------------------------------------------7--6-5---2-|
:-------------5----7-5-----------------5----7-5-----------2-|
:-5h7~~~--5h7---7----------5h7~~~--5h7---7----------------0-|

:----------|
:----------|
:----------|
:-5-/-3--2-|
:-5-/-3--2-|
:-3-/-1--0-|


:----------------------------------------------------|
:----------------------------------------------------|
:----------------------------------------------------|
:---0-2-3-2--3/5--3--2-3-2----0-2-3-2--3/5--3--2-3-2-|
:----------------------------------------------------|
:-0-------------------------0------------------------|

:--------------------------------------------------|
:--------------------------------------------------|
:--------------------------------------------------|
:---0-2-3-2--3/5--3--2-3-2-----0-2-3-2--3/5--3-3nh-|
:--------------------------------------------------|
:-0-------------------------0----------------------|

:-----------------------------------------------------------|
:-----------------------------------------------------------|
:-------------------------------------------------------7-9-|
:-7/9--9-9--9-9-9--9-9--10-9--10--7/9--9-9--9-9-9--9-9------|
:-------------------------------------------------------5-7-|
:-5/7--7-7--7-7-7--7-7--8--7--8---5/7--7-7--7-7-7--7-7------|

:-----------------------------------------------------------|
:-----------------------------------------------------------|
:-------------------------------------------------------7-5-|
:-7/9--9-9--9-9-9--9-9--10-9--10--7/9--9-9--9-9-9--9-9------|
:-------------------------------------------------------5-3-|
:-5/7--7-7--7-7-7--7-7--8--7--8---5/7--7-7--7-7-7--7-7------|

:-----------------------------------------------------------|
:-----------------------------------------------------------|
:-------------------------------------------------9--8-7----|
:-------------------------------------------------7--6-5--2-|
:------------5h7-7b--5---5-----------5h7-7b--5------------2-|
:-5h7~~~~--7-----------7---7b~~~---7-----------7----------0-|

:----------|
:----------|
:----------|
:-5-/-3--2-|
:-5-/-3--2-|
:-3-/-1--0-|

:----------------------------------------------------|
:----------------------------------------------------|
:---0-2-3-2--3/5--3--2-3-2----0-2-3-2--3/5--3--2-3-2-|
:---0-2-3-2--3/5--3--2-3-2----0-2-3-2--3/5--3--2-3-2-|
:----------------------------------------------------|
:-0-------------------------0------------------------|

:-----------------------------------------------|
:-----------------------------------------------|
:---0-2-3-2--3/5--3--2-3-2----0-2-3-2--3/5--3-3-|
:---0-2-3-2--3/5--3--2-3-2----0-2-3-2--3/5--3-3-|
:-----------------------------------------------|
:-0-------------------------0-------------------|

                           x3
:----------------------------|
:----------------------------|
:---7-9-10-9--12--10--9-10-9-|
:---7-9-10-9--12--10--9-10-9-|
:---5-7-8--7--10--8---7-8--7-|
:-0--------------------------|

:--------------------|
:--------------------|
:---7-9-10-9--12--10-|
:---7-9-10-9--12--10-|
:---5-7-8--7--10--8--|
:-0------------------|


:------------------------------------------------------------|
:------------------------------------------------------------|
:------------------------------------------------------------|
:------------------------------------------------------------|
:-2-3-2------------------------------------------------------|
:-0-1-0------------------------------------------------------|
            
Submit corrections


        Delusions Of Saviour  lessons Hard to play? Try these video lessons and learn fast Delusions Of Saviour  lessons
        
↑ Back to top | Tablatures and chords for acoustic guitar and electric guitar, ukulele, drums are parodies/interpretations of the original songs. You may use it for private study, scholarship, research or language learning purposes only