Home » S » Slaves »

Slaves - Eye Opener Bass

Artists:  A B C D E F G H I J K L M N O P Q R S T U V W X Y Z # 

Eye Opener Bass

(ver. 1) Click to play this song!
Slaves
 Rating:
4.4/5 (5 votes)
                [Verse/Pre-Chorus]
G|---------|------------------|-----------------|-----------------|-----------------|
D|---------|o-----------------|-----------------|-----------------|-----------------|
A|---------|------------------|---7-------------|-----------------|-----------------|
E|-5--3--0-|o---0-0---x-0-r---|------0--0-0-r---|---0-0---x-0-r-0-|-r-0-0---x-0-r---|
A|---------|------------------|-----------------|-----------------|-----------------|
   3 + 4 +    1 + 2 + 3 + 4 +   1 + 2 + 3 + 4 +   1 + 2 + 3 + 4 +   1 + 2 + 3 + 4 +
 
G|-----------------|-----------------|-----------------|------------------|
D|-----------------|-----------------|-----------------|-----------------o|
A|-----------------|-----------------|-----------------|------------------|
E|-----------------|-----------------|---0-0---x-0-r---|---0-0---5--3--0-o|
A|---2-0---x-0-r---|---3-3---x-3-3-3-|-----------------|------------------|
   1 + 2 + 3 + 4 +   1 + 2 + 3 + 4 +   1 + 2 + 3 + 4 +   1 + 2 + 3 + 4 +
 
[Chorus]
 
Rest 8 Bars
 
G|---------------------------------|---------------------------------|
D|---------------------------------|---------------------------------|
A|---------------------------------|---------------------------------|
E|---------------------------------|---------------------------------|
A|-0-0---0-0-----0-0-----0-----0---|---3-----3-----3-3---3---3-3-----|
   1 e + a 2 e + a 3 e + a 4 e + a   1 e + a 2 e + a 3 e + a 4 e + a
 
G|---------------------------------|---------------------------------|
D|---------------------------------|---------------------------------|
A|---------------------------------|---------------------------------|
E|-0-0---0-0-----0-0-----0-----0---|---------------------------------|
A|---------------------------------|---2-----2-----2-2-----2-----2---|
   1 e + a 2 e + a 3 e + a 4 e + a   1 e + a 2 e + a 3 e + a 4 e + a
 
G|---------------------------------|---------------------------------|
D|---------------------------------|---------------------------------|
A|---------------------------------|---------------------------------|
E|---------------------------------|---------------------------------|
A|-0-0---0-0-----0-0-----0-----0---|---3-----3-----3-3---3---3-3-----|
   1 e + a 2 e + a 3 e + a 4 e + a   1 e + a 2 e + a 3 e + a 4 e + a
 
G|---------------------------------|---------------------------------|
D|---------------------------------|---------------------------------|
A|---------------------------------|---------------------------------|
E|-0-0---0-0-----0-0-----0-----0---|-----------------------------0---|
A|---------------------------------|---5-----5-------3-----2---------|
   1 e + a 2 e + a 3 e + a 4 e + a   1 e + a 2 e + a 3 e + a 4 e + a
 
[Verse/Pre-Chorus]
G|------------------|-----------------|-----------------|-----------------|
D|o-----------------|-----------------|-----------------|-----------------|
A|------------------|---7-------------|-----------------|-----------------|
E|o---0-0---x-0-r---|------0--0-0-r---|---0-0---x-0-r-0-|-r-0-0---x-0-r---|
A|------------------|-----------------|-----------------|-----------------|
    1 + 2 + 3 + 4 +   1 + 2 + 3 + 4 +   1 + 2 + 3 + 4 +   1 + 2 + 3 + 4 +
 
G|-----------------|-----------------|-----------------|------------------|
D|-----------------|-----------------|-----------------|-----------------o|
A|-----------------|-----------------|-----------------|------------------|
E|-----------------|-----------------|---0-0---x-0-r---|---0-0---5--3--0-o|
A|---2-0---x-0-r---|---3-3---x-3-3-3-|-----------------|------------------|
   1 + 2 + 3 + 4 +   1 + 2 + 3 + 4 +   1 + 2 + 3 + 4 +   1 + 2 + 3 + 4 +
 
[Chorus]
 
Rest 8 Bars
 
G|---------------------------------|---------------------------------|
D|---------------------------------|---------------------------------|
A|---------------------------------|---------------------------------|
E|---------------------------------|---------------------------------|
A|-0-0---0-0-----0-0-----0-----0---|---3-----3-----3-3---3---3-3-----|
   1 e + a 2 e + a 3 e + a 4 e + a   1 e + a 2 e + a 3 e + a 4 e + a
 
G|---------------------------------|---------------------------------|
D|---------------------------------|---------------------------------|
A|---------------------------------|---------------------------------|
E|-0-0---0-0-----0-0-----0-----0---|---------------------------------|
A|---------------------------------|---2-----2-----2-2-----2-----2---|
   1 e + a 2 e + a 3 e + a 4 e + a   1 e + a 2 e + a 3 e + a 4 e + a
 
G|---------------------------------|---------------------------------|
D|---------------------------------|---------------------------------|
A|---------------------------------|---------------------------------|
E|---------------------------------|---------------------------------|
A|-0-0---0-0-----0-0-----0-----0---|---3-----3-----3-3---3---3-3-----|
   1 e + a 2 e + a 3 e + a 4 e + a   1 e + a 2 e + a 3 e + a 4 e + a
 
G|---------------------------------|---------------------------------|
D|---------------------------------|---------------------------------|
A|---------------------------------|---------------------------------|
E|-0-0---0-0-----0-0-----0-----0---|-----------------------------0---|
A|---------------------------------|---5-----5-------3-----2---------|
   1 e + a 2 e + a 3 e + a 4 e + a   1 e + a 2 e + a 3 e + a 4 e + a
 
[Bridge]
 
Rest 16 Bars
 
[Chorus]
G|----------------------------------|---------------------------------|
D|o---------------------------------|---------------------------------|
A|----------------------------------|---------------------------------|
E|o---------------------------------|---------------------------------|
A|--0-0---0-0-----0-0-----0-----0---|---3-----3-----3-3---3---3-3-----|
    1 e + a 2 e + a 3 e + a 4 e + a   1 e + a 2 e + a 3 e + a 4 e + a
 
G|---------------------------------|---------------------------------|
D|---------------------------------|---------------------------------|
A|---------------------------------|---------------------------------|
E|-0-0---0-0-----0-0-----0-----0---|---------------------------------|
A|---------------------------------|---2-----2-----2-2-----2-----2---|
   1 e + a 2 e + a 3 e + a 4 e + a   1 e + a 2 e + a 3 e + a 4 e + a
 
G|---------------------------------|---------------------------------|
D|---------------------------------|---------------------------------|
A|---------------------------------|---------------------------------|
E|---------------------------------|---------------------------------|
A|-0-0---0-0-----0-0-----0-----0---|---3-----3-----3-3---3---3-3-----|
   1 e + a 2 e + a 3 e + a 4 e + a   1 e + a 2 e + a 3 e + a 4 e + a
 
G|---------------------------------|----------------------------------|
D|---------------------------------|---------------------------------o|
A|---------------------------------|----------------------------------|
E|-0-0---0-0-----0-0-----0-----0---|-----------------------------0---o|
A|---------------------------------|---5-----5-------3-----2----------|
   1 e + a 2 e + a 3 e + a 4 e + a   1 e + a 2 e + a 3 e + a 4 e + a
 
[Outro]
G|-----------------|-----------------|-----------------|-----------------|
D|-----------------|-----------------|-----------------|-----------------|
A|-----------------|---7-------------|-----------------|-----------------|
E|---0-0---x-0-r---|------0--0-0-r---|---0-0---x-0-r-0-|-r-0-0---5--3--0-|
A|-----------------|-----------------|-----------------|-----------------|
   1 + 2 + 3 + 4 +   1 + 2 + 3 + 4 +   1 + 2 + 3 + 4 +   1 + 2 + 3 + 4 +
 
G|-----------------|-----------------|-----------------|-----------------|
D|-----------------|-----------------|-----------------|-----------------|
A|-----------------|---7-------------|-----------------|-----------------|
E|---0-0---x-0-r---|------0--0-0-r---|---0-0---x-0-r-0-|-r-0-0---r-------|
A|-----------------|-----------------|-----------------|-----------------|
   1 + 2 + 3 + 4 +   1 + 2 + 3 + 4 +   1 + 2 + 3 + 4 +   1 + 2 + 3 + 4 +
            
Submit corrections

↑ Back to top | Tablatures and chords for acoustic guitar and electric guitar, ukulele, drums are parodies/interpretations of the original songs. You may use it for private study, scholarship, research or language learning purposes only